Leftover Crack - Athiest Anthem Chords & Tabs

 

Athiest Anthem Chords & Tabs

Leftover Crack Chords & Tabs

Version: 1 Type: Tab 0 ratings
1 star 2 stars 3 stars 4 stars 5 stars
comments

Athiest Anthem Tab

Intro: x8 Palm muted
e------------------------------------------------------------------
B------------------------------------------------------------------
G------------------------------------------------------------------
D-9--x8-7-x8-9-x8-10-x8--------------------------------------------
A-10----9----7----8------------------------------------------------
E------------------------------------------------------------------
Verse: x2  (Listen to the song for the strumming pattern)
e------------------------------------------------------------------
B------------------------------------------------------------------
G--12----11---9---17----12----11---9---10--------------------------
D------------------------------------------------------------------
A--10----9----7---15----10----9----7---8---------------------------
E------------------------------------------------------------------

Chorus:x2 Hit each chord only onece.  dont strum
e------------------------------------------------------------------
B------------------------------------------------------------------
G--12---14--16--17-------------------------------------------------
D------------------------------------------------------------------
A--10---12--14--15-------------------------------------------------
E------------------------------------------------------------------

Verse:x2 (Listen to the song for the strumming pattern)
e------------------------------------------------------------------
B------------------------------------------------------------------
G--12----11---9---17----12----11---9---10--------------------------
D------------------------------------------------------------------
A--10----9----7---15----10----9----7---8---------------------------
E------------------------------------------------------------------
[ Tab from: http://www.guitartabs.cc/tabs/l/leftover_crack/athiest_anthem_tab.html ]
Chorus:x2   Hit each chord only onece.  dont strum
e------------------------------------------------------------------
B------------------------------------------------------------------
G--12---14--16--17-------------------------------------------------
D------------------------------------------------------------------
A--10---12--14--15-------------------------------------------------
E------------------------------------------------------------------

Now Play the verse riff onece and go into the bridge. Which is:
e--------------------------||---------------------------------------
B--(hit each chord 8 times)||-(Hit each onece)----------------------
G------12---14--16--17-----||16--17--16--14--16--17--16--14-12-12-10
D--------------------------||---------------------------------------
A------10---12--14--15-----||14--15--14--12--14--15--14--12-10-10-9-
E-------------------------------------------------------------------

Bridge continued: this part you play 2 times.
e------------------------------------------------------------------
B------------------------------------------------------------------
G--12--12--14--14--12--12-14--14--12-12--14-14--16--17--16--14-----
D------------------------------------------------------------------
A--10--10--12--12--10--10-12--12--10-10--12-12--14--15--14--12-----
E------------------------------------------------------------------

Now its the verse one time again. And then the chorus twice Its origional length.
then the outro. which is:
e------------------------------||-----------------------------------
B--------PALM MUTED------------||---LAST TIME ONLY------------------
G----All this is played twice--||-(not palm muted)------------------
D------------------------------||-----5-----------------------------
A--2-x8--0-x8-2-x8-0-x8--------||-----5-----------------------------
E--3-----2----0----2-----------||-----3-----------------------------
Comments