Left Out Kid - Leaving England Chords & Tabs

 

Leaving England Chords & Tabs

Left Out Kid Chords & Tabs

Version: 1 Type: Tab 0 ratings
1 star 2 stars 3 stars 4 stars 5 stars
comments

Leaving England Tab

   
Tabbed by Jon Riley www.leftoutkid.fsnet.co.uk

 LEAVING ENGLAND

 Tune down E to D....so it's D,A,D,G,B,E

 Chords:

 (A)  (E)  (B)  (G)     Key:
D 7    2    9    5
A 7    2    9    5       / = slide
D 7    2    9    5
G x    x    x    x       p = pull off
B x    x    x    x
e x    x    x    x

  Intro: (Guitar 1)

    A              E            B             C#
 D|--7-7-7-7-7--|--2-2-2-2-2--|--9--9--9--9--9---||
 A|--7-7-7-7-7--|--2-2-2-2-2--|--9--9--9--9--9---||
 D|--7-7-7-7-9--|--5-5-5-5-4--|--12-12-12-12-12--||
 G|-------------|-------------|------------------||
 B|-------------|-------------|------------------||
 e|-------------|-------------|------------------||

  Intro: (Guitar 2)
[ Tab from: http://www.guitartabs.cc/tabs/l/left_out_kid/leaving_england_tab.html ]
     G  F#         B
 D|---x--x---    --x--||
 A|--10--9---    --2--||
 D|---x--x---etc --x--||
 G|--12--11--    --4--||
 B|---x--x---    --x--||
 E|---x--x---    --x--||

  Verse:

    G               B                E             A
 D|--5---5-----5--|--9---9------9--|--2---2------|--7--7----||
 A|----5-----5----|----9------9----|----2--------|----------||
 D|--------7------|--------12------|--------4-5--|----9--7--||
 G|---------------|----------------|-------------|----------||
 B|---------------|----------------|-------------|----------||
 e|---------------|----------------|-------------|----------||

  "Here comes the thunderstorm...."

  Verse Riff:

 D|--------------------------------------------||
 A|----------------------------------------12--||
 D|--5/7--7/9--9/11--11/12--14-12p11-12p11-----||
 G|--------------------------------------------||
 B|--------------------------------------------||
 e|--------------------------------------------||

 The intro is the same as the chorus.

 copyright belongs to Jon Riley
Comments