Left Out Kid - Aquarium Chords & Tabs

 

Aquarium Chords & Tabs

Left Out Kid Chords & Tabs

Version: 1 Type: Tab 0 ratings
1 star 2 stars 3 stars 4 stars 5 stars
comments

Aquarium Tab

   
Tabbed by Jon Riley www.leftoutkid.fsnet.co.uk

 AQUARIUM

 This is a really easy song so I won't bother tabbing all of it in fact I'll only
 tab my so called "solo".

 The verse is just made up of:

 A# (11th), D# (11th), Fm (8th) and C# (9th)

 The chorus is just:

 D# (6th), C# (9th) and back up to D# (11th) at the end.

 My "Solo" is just basically picking the verse chords (I never could write a solo)

[ Tab from: http://www.guitartabs.cc/tabs/l/left_out_kid/aquarium_tab.html ]
    A#                D#             Fm             C#
 e|-------------11--|-----------6--|----8------8--|------------4--|
 B|-------13--------|------8-------|------9-------|-------6-------|
 G|----13----13-----|----8----8----|--------10----|----6-----6----|
 D|-13--------------|-8------------|-10-----------|-6-------------|
 A|-----------------|--------------|--------------|---------------|
 E|-----------------|--------------|--------------|---------------|
    A#              D#             Fm             C#
 e|-------13--11--|-------8--6--|----8-------8--|-------------4--|
 B|---------------|-------------|------9--------|-------6--------|
 G|----13---------|----8--------|--------10-----|----6-----6-----|
 D|-13------------|-8-----------|-10------------|-6--------------|
 A|---------------|-------------|---------------|----------------|
 E|---------------|-------------|---------------|----------------|

  So thats it...

 copyright belongs to Jon Riley
Comments