Lefay - The Seventh Seal Chords & Tabs

 

The Seventh Seal Chords & Tabs

Lefay Chords & Tabs

Version: 1 Type: Tab 0 ratings
1 star 2 stars 3 stars 4 stars 5 stars
comments

The Seventh Seal Tab

   
LEFAY-THE SEVENTH SEAL from the godlike album „The seventh seal“


|--------------------------------------------------------------------------------
|--------------------------------------------------------------------------------
|-------------------------------------------------------------------------------
|-----------------3-------------5------------------------3---------------------
|----------3-4-5-------3-4-5-----4-3---------3-4-5-------------------------
|---3~-6------------6-------------------3~-6---------------0-3-0-6-6-5-3-

      
play 3 times                          then
|------------------------------------------------------------------------------
|-------------------------------------------------------------------------------
|-------------------------------------------------------------------------------
|------------2--2---2---------------------------------------------------------
|--5--6--7--2--2--2------------------------3-4-5-----------------------
|--0--0--0--0--0--0-------------3--4-5-----------------------------------



clean twice                                                             twice
|-----------------------------------------------------------------------------
|-----------------------------------------------------------------------------
|----------------0--------------------------0------------------------------0-
|------4------------------4------4---------------------4------4-4--------
|-----------------------------------------------------------------------------
|---3-----3--3-----3--3-------3----3--3------3-3------2---------2-----

[ Tab from: http://www.guitartabs.cc/tabs/l/lefay/the_seventh_seal_tab.html ]
|-----------------------------------------------------------------------------
|-----------------------------------------------------------------------------
|---------------------------0--------------------------------------------------
|---4----4------4--4---------4--------4-------------------------------------
|------------------------------------------------------------------------------
|-----2-------2--------2----------2-----------------------------------------

|------------------------------------------------------------------------------------------
|------------------------------------------------------------------------------------------
|------------------------------------------------------------------------------------------
|------------------------------------------------------------------------------------------
|--5--6--7-----------5--6--7--------------5-6-7-------------------------3-4-5-
|--0--0--0--0--0-0--0--0--0--0--0-0----0-0-0-0-0-0-3-4-5-----------



|---------------------------------------------------------------------------------
|---------------------------------------------------------------------------------
|---------------------------------------------------------------------------------
|-----------5--------------------5-----------------------------------------------
|-5--6--7--5--7---6-5--6-7-5--7--6---5----------------------------------
|-5--6--7------7--6--5--6--7-----7-6-5---------------------------------



|---------------------------------------------------------------------------------
|---------------------------------------------------------------------------------
|---------------------------------------------------------------------------------
|-----------3---------------------3----------------------------------------------
|-3--4--5--3-5--4---3--4--5---3---5---4---3--------------------------------
|-3--4--5-----5--4---3--4--5-------5---4---3--------------------------------

Last riff:    A  A  A  A  A  A  G  G  G          E

Well, this tab isn’t well formatted but the riffs seem to be very similar to the 
originals! Have fun studying the tab and Lefay rule!!!! For any corrections, please 
send me a message!

Harry@pfaffenwinkel.de
Comments