Lefay - End Of Living Chords & Tabs

 

End Of Living Chords & Tabs

Lefay Chords & Tabs

Version: 1 Type: Tab 0 ratings
1 star 2 stars 3 stars 4 stars 5 stars
comments

End Of Living Tab

                         LEFAY - END OF LIVING
                    From the Album THE SEVENTH SEAL
                       Version 1.0 - JANUARY 2001

Transcribed by: Haris Durakovic (foreverlorn@gmx.de)

For Questions, Comments, Newest Version, or Corrections contact me

Check Out Death Warp, With More Transcriptions On It:
 http://tiger.towson.edu/~dalvis1

..  - palm mute          /  - slide up to
 \  - slide down to      ~  - vibrato
 h  - hammer on          b  - bend
 p  - pull off            Suffixes for bend
                          ph - pinch harmonic
                           f - full bend    h - half bend
*  - see comment           r - release      t - tap bend
X  - percussion mute       ~ - vibrato bend
@  - slight palm mute     () - ghost note, sustained note

LEFAY- End of living

RHYTHM GUITAR

  Riff 1							1.
|------------------------------------------------------------|----------|
|------------------------------------------------------------|----------|
|------------------------------------------------------------|----------|
|------------------------------------------------------------|--5-------|
|-44444-4444444-4444444-4444444-2-44444-4444444-4444444-4444-|--3--5--2-|
|-22222-2222222-2222222-2222222-0-22222-2222222-2222222-2222-|-----3--0-|
  ....  ......  ......  ......    ....  ......  ......  ....


   2.	      Riff 2	    Fill 1      Fill 2
|---------|----------------|---------|-----------------------|
|---------|----------------|---------|-----------------------|
|---------|----------------|---------|-----9-10-7-9-10-14-13-|
|-3--2----|---2--0-----323-|-2-3-7-6-|-----------------------|
|-1--0--5-|---2--0-----323-|-2-3-7-6-|-----7/8--5-7/8--12-11-|
|-------3-|-000-----00-----|---------|-0---------------------|
            ..      ..                 .

   Refrain                             1.    2.
|----------------------------------|-------|---|
|----------------------------------|-------|---|
|-2------2-2------2-2------2-2-----|-------|---|
|-2------2-3------3-4------4-5-----|-5-4-3-|-8-|
|-0--00--0-0--00--0-0--00--0-0--00-|-3-2-1-|-6-|
|----------------------------------|-------|---|
     ..       ..       ..       ..

  Riff 3             Riff 4    Fill 3
|-----------------|------|------------------------|
|-----------------|------|------------------------|
|---2--3--------5-|-4----|-4--2--------4--5--7--8-|
|---2--3--------5-|-4----|-4--2--5--4--4--5--7--8-|
|-000--1------323-|-2-22-|-2--0--5--4--2--3--5--6-|
|---------33------|------|-------3--2-------------|
  ..      ..          .. 
[ Tab from: http://www.guitartabs.cc/tabs/l/lefay/end_of_living_tab.html ]
   Riff 5                          Riff 6
|------------------------------|------------------------------------------|
|------------------------------|------------------------------------------|
|------------------------------|-4h5p4----------------------7---5-----5---|
|--------------9~--7~~---------|-------7-5------7-----5-------9---7-7---7-|
|-7~--9~--10~-------------10~~-|-----------7------9-----7-----------------|
|------------------------------|-------------0------0-----0---------------|


           Fill 4				       Fill 5
|------|----------------------------------------|------------------|
|------|----------------------------------------|------------------|
|--7---|----------------------------------------|------------------|
|----9-|-9-10-9-7-9-----------------------------|------------------|
|------|------------10-7~--5~--10~--14~-12~-10~-|-7~-5~-3~-2~-1-1~-|
|------|----------------------------------------|------------------|



LEAD GUITAR (not complete!)

   Riff 1     Riff 2
|---------|------------------------------------------|
|---------|------------------------------------------|
|-----5~~-|-10-9--7--9-9--10-9-10--9--7--9-9-10-9-12-|
|--4--5~~-|------------------------------------------|
|--4--3~~-|-8--7--5--7-7--8--7-8---7--5--7-7--8-7-10-|
|--2------|------------------------------------------|


			 Fill 1		 Fill 2
|--------------------|-------------|-------------------|
|--------------------|-------13-12-|-------------13-12-|
|-9--7--9-9--10-9-10-|-9-10--------|-9-10-7-9-10-------|
|--------------------|-------10-9--|-------------10-9--|
|-7--5--7-7--8--7-8--|-7-8---------|-7-8--5-7-8--------|
|--------------------|-------------|-------------------|


  Lead on refrain
|-------------------------------------------------15bf--20~~--22bf-|
|------------------------15----------15----------------------------|
|-16b(17)b16p14~~-----------14----------14-12-14~------------------|
|------------------12-14-------12-14-------------------------------|
|------------------------------------------------------------------|
|------------------------------------------------------------------|

Structure:

Riff 1:		2x
Riff 2:		3x
Fill 1:		1x
Fill 2:		1x
Riff 2:		3x
Fill 1:		1x
Riff 2:		3x
Fill 1:		1x
Refrain:	      2x
Riff 2:		1x
Fill 1:		1x
Riff 2:		3x
Fill 1:		1x
Riff 2:		3X
Fill 1:		1x
Refrain:	      4x
Riff 1:		2x
Riff 2:		1x
Fill 1:		1x 
Riff 1:		2x
Riff 2:		1x
Fill 1:		1x
Riff 2:		3x
Riff 3:		1x
Riff 2:		3x
Riff 3:		1x
Riff 4:		12x
Fill 3:		1x
Riff 5:		1x
Riff 6:		1x
Fill 4:		1x
Riff 6:		1x
Fill 5:		1x
Fill 2:		1x
Riff 2:		3x
Fill 1:		1x
Riff 2:		3x
Fill 1:		1x
Refrain:	      4x
Riff 1:		4x (the last two times a bit changed!)

Check Out Death Warp, With More Transcriptions On It:
 http://tiger.towson.edu/~dalvis1
Comments