Lee Ryan - Turn Your Car Around Chords & Tabs

 

Turn Your Car Around Chords & Tabs

Lee Ryan Chords & Tabs

Version: 1 Type: Tab 0 ratings
1 star 2 stars 3 stars 4 stars 5 stars
comments

Turn Your Car Around Tab

   
Lee Ryan: Turn your car around
Tabbed by H.T
Great song!

Capo 4

Intro,verses and chorus chords:

Em7 G D Cadd9

Intro and fill:

E-----------------------|
B-3-5-------3-5---8-7---|
G-----4-2-0-----4-------|
D-----------------------|
A-----------------------|
E-----------------------|

Solo:
[ Tab from: http://www.guitartabs.cc/tabs/l/lee_ryan/turn_your_car_around_tab.html ]
E-----------------------------|
B-5---5---7---8---8---7---7---|
G---7---7---7---7---7---7---7-|
D-----------------------------|
A-----------------------------|
E-----------------------------|

E-----------------------------|
B-5---5---7---8---8-7-8-7-5---|
G---7---7---7---7-------------|
D-----------------------------|
A-----------------------------|
E-----------------------------|

Pretty easy but sounds great!
Comments