Lee Peggy - Fever Chords & Tabs

 

Fever Chords & Tabs

Lee Peggy Chords & Tabs

Version: 1 Type: Tab 0 ratings
1 star 2 stars 3 stars 4 stars 5 stars
comments

Fever Tab

   
This is my first tab ever, but I know it should be somewhat right because I 
played it as a clarinet solo, and I just transposed the notes for the 
guitar. I've only done the first part, the verse, you can figure the 
rest out yourself. The notes are G-F-G-F-D-F-G in case I screwed it up 
somewhere. But based on this, I'm sure you can make some sense from it.
[ Tab from: http://www.guitartabs.cc/tabs/l/lee_peggy/fever_tab.html ]
E:---------------|-------------|--------------|-------------------|
B:---------------|-------------|--------------|-------------------|
G:---------------|-------------|--------------|-------------------|
D:-6-4-6-4-6--4-6|6-4-6-4-6-4--|6-4-6-4-6--4-6|-----6-4-6-4-6-4---| 
A:----------5----|-----------55|---------5----|555-------------55-|
E:---------------|-------------|--------------|-------------------|

E:---------------|
B:---------------|
G:---------------|
D:---4-----------|
A:555-5----------|
E:---------------|
Comments