Lee Peggy - Fever Chords & Tabs

 

Fever Chords & Tabs

Lee Peggy Chords & Tabs

Version: 1 Type: Bass Tab 1 rating
1 star 2 stars 3 stars 4 stars 5 stars
comments

Fever Bass Tab

SONG:   Fever
ARTIST: Peggy Lee

INTRO

|---------------------------|-----|
|*------------------2-------|----*|
|*--0--3--0--3--0--------0--|----*|
|----------------------4----|--0--|

VERSE 1

|------------------|--------------------------|-----|
|*--------------2-*|-----------------2--------|-----| play 5 times
|*--0--3--0--3----*|--0--3--0--3--0--------0--|-----|
|------------------|--------------------4-----|--0--|

BRIDGE 1

|--------------------------|------------|
|-----------------3--------|--3-5-------|
|--1--4--1--4--1-----0--1--|------4--3--|
|--------------------------|------------|

VERSE 2
[ Tab from: http://www.guitartabs.cc/tabs/l/lee_peggy/fever_btab.html ]
|-------------------|--------------------------|-------------------|--------------------------|
|*-----------------*|-----------------3--------|*---------------3-*|-----------------3--------|
|*--1--4--1--4-----*|--1--4--1--4--1-----0--1--|*--1--4--1--4-----*|--1--4--1--4--1-----0--1--|
|---------------1---|--------------------------|-------------------|--------------------------|

BRIDGE 2

|--------------------------|-----|
|-----0-----0--4-----------|-----|
|--2-----2--------2--1--2--|-----|
|--------------------------|--0--|

VERSE 3

|-------------------|--------------------------|
|*-----0-----0--4--*|-----0-----0-----4--------| play 1st, 2nd and 4th times
|*--2-----2--------*|--2-----2-----2-----1--2--|
|-------------------|--------------------------|

|-------------------|--------------------------|
|*-----0-----0-----*|-----0-----0-----4--------| play 3rd time
|*--2-----2--------*|--2-----2-----2-----1--2--|
|---------------2---|--------------------------|

END

|-------------------|
|*--4--------0-----*| play 4 times
|*-----1--2-----2--*|
|-------------------|

this is pretty straightforward so you wont have much trouble, any comments, questions or anythin
just e-mail me at cu_cuchulainn13@yahoo.co.uk
Comments