Lee Ben - Running With Scissors Chords & Tabs

 

Running With Scissors Chords & Tabs

Lee Ben Chords & Tabs

Version: 1 Type: Tab 1 rating
1 star 2 stars 3 stars 4 stars 5 stars
comments

Running With Scissors Tab

   
i just kind of pick this up just by listening so 
you might pick it up better by listening to it 
rather then trying to read my dogey tabs. cheers.
evan


Intro/Veres
e-----------------------|--------------------3-3-|
a---3h5--3--0--3--0-x-x-|---3h5--3--0--3--0--5-5-|
d-----------------------|--------------------5-5-|
g-----------------------|------------------------|
b-----------------------|------------------------|
e-----------------------|------------------------|
[ Tab from: http://www.guitartabs.cc/tabs/l/lee_ben/running_with_scissors_tab.html ]
e-------------------1-1-|--------------------3-3-|
a---3h5--3--0--3--0-3-3-|---3h5--3--0--3--0--5-5-|
d-------------------3-3-|--------------------5-5-| repeat x2
g-----------------------|------------------------|
b-----------------------|------------------------|
e-----------------------|------------------------|

e--------333xx-111xx-333xx-|-------333xx-111xx-333xx-|
a--333xx-555xx-333xx-555xx-|-333xx-555xx-333xx-555xx-|
d--555xx-555xx-333xx-555xx-|-555xx-555xx-333xx-555xx-|
g--555xx-------------------|-555xx-------------------|
b--------------------------|-------------------------|
e--------------------------|-------------------------|

The serpent sky is painted blue...

Chorus:
 C             D                          G              Em
The screeching hearts will never understand, the bla bla sunlight 
            C
in your hands
            D               (back to tabs above)
We run with sicssors in our hands


(I dont really know the words off the top of my head but thats basically it.)


Comments