Led Zeppelin - Your Time Is Gonna Come Chords & Tabs

 

Your Time Is Gonna Come Chords & Tabs

Led Zeppelin Chords & Tabs

Version: 2 Type: Tab 0 ratings
1 star 2 stars 3 stars 4 stars 5 stars
comments

Your Time Is Gonna Come Tab

Your Time Is Gonna Come  
Led Zeppeling 
[ Tab from: http://www.guitartabs.cc/tabs/l/led_zeppelin/your_time_is_gonna_come_tab_ver_2.html ]
|--------2----3---0|-----3---0--------|
|------3-----3---3-|----3---3----3--3-|o
|----2------0---0--|---0---0----------|
|--0---------------|------------03-03-|
|----------3---3---|----------03------|o
|------------------|--3---3-----------|
   1 . 2 . 3 . 4 .    1 . 2 . 3 . 4 .  
 
        changing to this:

|--------5----7---5|-----3---3---5---3|
|------7-----5---5-|----5---5---3---3-|
|----7------6---6--|---5---5---4---4--|  D                    G
|--0-------0---0---|--0---0---0---0---|   "Your time is gonna come."
|------------------|------------------|
|------------------|------------------|
   1 . 2 . 3 . 4 .    1 . 2 . 3 . 4 .  
 

Comments