Led Zeppelin - You Shook Me Chords & Tabs

 

You Shook Me Chords & Tabs

Led Zeppelin Chords & Tabs

Version: 3 Type: Tab 0 ratings
1 star 2 stars 3 stars 4 stars 5 stars
comments

You Shook Me Tab

-----------------------------------------------------------------------------
                     Led Zeppelin - You Shook Me
-----------------------------------------------------------------------------
Transcribed by Victor Ochoa
Standard Tuning


E|----------------12--1210|12----107---------------|
B|------------------------|----------108-----------|
G|------------------------|--------------9---4-----|
D|------------------------|------------------------|
A|------------------------|------------------------|
E|------------------------|------------------------|

E|----1212--111210------------|------------------------|
B|----------------121012108-9-|----------9--8----------|
G|----------------------------|9-------9---9-----11-9-8|
D|----------------------------|------9-----------------|
A|----------------------------|------------------------|
E|----------------------------|------------------------|
                                         \3/        \3/

E|------------------------||------------------------|
B|------9-----434---------||------------------------|
G|9-----9-----434---------||------------------------|
D|------9-----434---------||------------------------|
A|------------------------||------------------------|
E|----------------0-5---3-||0---0-0---0-0---0-5-5-3-|
                   You know you shook me.....

E|------------------------|------------------------|
B|------------------------|------------------------|
G|------7-9-12------9---7-|---6--5--4--3-----------|
D|----9-------------------|------------------------|
A|------------------------|------------------------|
E|0-----------------------|----------------0-5---3-|

E|------------------------|------------------------|
B|------------------------|------------------------|
G|------------------7-9-12|------9---7-----9---7-5-|
D|----------------9-------|------------------------|
A|------------------------|------------------------|
E|0---0-0---0-0-----------|------------------------|

E|------------------------|------------------------|
B|---9--------------------|------------------------|
G|3-----7-9-12------9---7-|---6--5--4--3-----------|
D|----9-------------------|------------------------|
A|------------------------|------------------------|
E|------------------------|----------------0-5---3-|

E|------------------------|------------------------|
B|------------------------|--------16--------------|
G|----------------1616--14|16--------1614--12----9-|
D|------------------------|------------------------|
A|------------------------|------------------------|
E|0---0-0---0-0-----------|------------------------|

E|----12----101210------------|------------------------|
B|----------------121012108-9-|----------9-------------|
G|----------------------------|9-------9---912---9-11--|
D|----------------------------|------9-----------------|
A|----------------------------|------------------------|
E|----------------------------|------------------------|
                                         \3/

E|------------------------|------------------------|
B|------9---434---2-------|------------------------|
G|9---7-9---434---2-------|------------------------|
D|----7-9---434---2-------|------------------------|
A|------------------------|------------------------|
E|----------------0-5---3-|0---0-0---0-0---0-5---3-|
                  I have a bird that whistles.....

E|------------------------|------------------------|
B|--9---------------------|------------------------|
G|--9---7-9-1112----79--7-|---6--5--4--3-----------|
D|----9-------------------|------------------------|
A|------------------------|------------------------|
E|0-----------------------|----------------0-5---3-|

E|------------------------|------------------------|
B|------------------------|------------------------|
G|------------------7-9-12|------7-9-7----9----7-5-|
D|----------------9-------|------------------------|
A|------------------------|------------------------|
E|0---0-0---0-0-----------|------------------------|

E|------------------------|------------------------|
B|------------------------|------------------------|
G|3-9---7-9-12------9---7-|---6--5--4--3-----------|
D|----9-------------------|------------------------|
A|------------------------|------------------------|
E|------------------------|----------------0-5---3-|

E|------------------------|--------12--------------|
B|----------------10121210|12----9-1212108---------|
G|------------------------|------------------------|
D|------------------------|------------------------|
A|------------------------|------------------------|
E|0---0-0---0-0-----------|------------------------|

E|----2424--22242219171917----|----------------------------|
B|------------------------1721|----------21--20----19--1716|
G|----------------------------|21------21--21--------------|
D|----------------------------|------21--------------------|
A|----------------------------|----------------------------|
E|----------------------------|----------------------------|

                            Organ Solo
E|------16171819------12--||------------------------|
B|17----------------12--12||------------------------|
G|------------------------||------------------------|
D|------------------------||------------------------|
A|------------------------||------------------------|
E|------------------------||0---0-0---0-0---0-5---3-|

E|------------------------|------------------------|
B|------------------------|------------------------|
G|------------------------|------------------------|
D|------------------------|------------------2-----|
A|2---2-4---4-2---0-7---5-|2---2-4---4-2---2-0---5-|
E|0---0-0---0-0---0-5---3-|0---0-0---0-0---0-----3-|

E|------------------------|------------------------|
B|------------------------|------------------------|
G|------------------------|------------------------|
D|------------------------|------------------------|
A|2---2-4---4-2---2-7---5-|7---7-9---9-7-----7---5-|
E|0---0-0---0-0---0-5---3-|5---5-5---5-5---0-5---3-|

E|------------------------|------------------------|
B|------------------------|------------------------|
G|------------------------|------------------------|
D|------------------------|------------------------|
A|7---7-9---9-7---2-7---5-|2---2-4---4-2---2-7---5-|
E|5---5-5---5-5---0-5---3-|0---0-0---0-0---0-5---3-|

E|------------------------|------0-----------------|
B|------------------------|----------0-----0---0---|
G|------------------------|--------2---2---2-2---2-|
D|------------------------|------------------------|
A|2---2-7---7-2---2-2---0-|2---2-2-----------------|
E|0---0-5---5-0---0-0-4---|------------------------|

E|------------------------|------------------------|
B|------------2---2-2---2-|------------------------|
G|------------------------|--------1-----2-----3---|
D|----------2-5---5-2---2-|------------------------|
A|0---0-3-4-----------4---|------2---2-3---3-4---4-|
E|------------------------|0---0-------------------|

E|------------------------|------------------------|
B|------------------0---0-|------------------------|
G|4-------------------2---|------------------------|
D|------------------------|------------------------|
A|5---5---0-1-2---2-2-----|2---2-4---4-2---2-7---5-|
E|------4-----------------|0---0-0---0-0---0-5---3-|

E|------------------------|------------------------|
B|------------------2---0-|------------------2---0-|
G|------------------2---0-|------------------2---0-|
D|------------------2---0-|------------------2---0-|
A|2---2-----2-------0-----|2---2-----2-------0-----|
E|0---0-----0-----------3-|0---0-----0-----------3-|
[ Tab from: http://www.guitartabs.cc/tabs/l/led_zeppelin/you_shook_me_tab_ver_3.html ]
E|------------------------|------------------------|
B|2-----2-----------------|2---------------------0-|
G|2-----2-----------------|2---------------2-2---0-|
D|2-----2---2-----2-2-----|2-----2---2-2---2-2---0-|
A|0-----0---2-----2-2---5-|0---0-----0-0---0-0-----|
E|----0-----0-----0-0---3-|------------------------|

E|------------------------|------------------------|
B|------------------------|------------------2---0-|
G|2---------0-0-----2---0-|------------------2---0-|
D|2-----2---2-2---2-2---0-|------------------2---0-|
A|0---0-0---0-0---0-0-----|2---2-2---2-2---2-0-----|
E|----------------------3-|0---0-0---0-0---0-----3-|

E|------------------------|--------------------------|
B|------------------------|------0-------0--0--0---0-|
G|------------------------|----------2--2--2--2--2---|
D|2---2-2---2-2---2-------|4---4------4--------------|
A|2---2-2---2-2---2---0-1-|2---2---------------------|
E|0---0-0---0-0---0-4-----|--------------------------|
                                   \3/\3/   \3/

E|------------------------|------------------------|
B|------------------------|--------9-----8-----7---|
G|------------------------|------------------------|
D|----------2-5---5-2---2-|2---2-9---9-8---8-7---7-|
A|0---0-3-4-----------4---|------------------------|
E|------------------------|------------------------|

                              Guitar Solo
E|--------------------------||------------------------|
B|----------------------1413||------1715--------------|
G|--------------------13----||14--15------------161413|
D|6-----------------14------||------------------------|
A|--------------------------||------------------------|
E|------4-5-6---------------||------------------------|

E|--------------------------|------------------17--16|
B|--------------------------|------15----17----------|
G|1413------13--------131413|16----------------------|
D|------------1412--14------|------------------------|
A|--------------------------|------------------------|
E|--------------------------|------------------------|

E|------------16--15121212|21--191817-------------------------19--19--|
B|------------------------|-----------201917--172017--17--1721--19--19|
G|------------------------|-----------------18------18--18------------|
D|------------------------|-------------------------------------------|
A|------------------------|-------------------------------------------|
E|------------------------|-------------------------------------------|

E|-------------------------------19--21191817------------|
B|201920192019211917--17--171921---17--------2019171917--|
G|------------------18--18-----------------------------18|
D|-------------------------------------------------------|
A|-------------------------------------------------------|
E|-------------------------------------------------------|

E|---------19----------------------------------|
B|17--1721---1921--20192019201917--171917191719|
G|--18---------------------------18------------|
D|---------------------------------------------|
A|---------------------------------------------|
E|---------------------------------------------|

E|----------------------12|17171512--12----------------|
B|------19--19--19--1214--|--------15--151215141214----|
G|18--18--18--18--18------|------------------------14--|
D|------------------------|----------------------------|
A|------------------------|----------------------------|
E|------------------------|----------------------------|

E|-------------------------------------------------|
B|-------------------------------15----------------|
G|----1618--141614161412--12--16---161412--12------|
D|--14------------------14--14-----------14--141214|
A|16-----------------------------------------------|
E|-------------------------------------------------|

E|------------------------|------------------------||
B|------------------------|------------------------||
G|------------------------|------------------------||
D|1214----14----14----14--|----------149-----------||
A|------14--1413--1212--12|11----------------2-----||
E|------------------------|--------------------5-3-||

E|------------------------|------------------------|
B|------------------------|------------------------|
G|------------------------|------7-9-12------9---7-|
D|------------------------|----9-------------------|
A|------------------------|------------------------|
E|0---0-0---0-0---0-5-5-3-|0-----------------------|
  You know you shook me baby.....

E|------------------------|------------------------|
B|------------------------|------------------------|
G|---6--5--4--3-----------|----------------9-7-9-12|
D|------------------------|------------------------|
A|------------------------|------------------------|
E|----------------0-5---3-|0---0-0---0-0-----------|

E|------------------------|------------------------|
B|------------------------|---9--------------------|
G|------9---7-----9---7-5-|3-----7-9-12------9---7-|
D|------------------------|----9-------------------|
A|------------------------|------------------------|
E|------------------------|------------------------|

E|------------------------|------------------------------|
B|------------------------|------------------------------|
G|---6--5--4--3-----------|----------------12121012101210|
D|------------------------|------------------------------|
A|------------------------|------------------------------|
E|----------------0-5---3-|0---0-0---0-0-----------------|

E|------------17--15----14|12----------------------|
B|12----16--17------------|------------19--20----19|
G|--------16--------------|------------------------|
D|------------------------|------------------------|
A|------------------------|------------------------|
E|------------------------|------------------------|

E|----------------------------|--------------------------|
B|1917151715--191917151715--19|1917151715----23----1717--|
G|----------------------------|--------------------------|
D|----------------------------|--------------------------|
A|----------------------------|--------------------------|
E|----------------------------|--------------------------|

E|------------------------|------------------------|
B|------------2321232123--|1717--------------------|
G|------------------------|------------------------|
D|------------------------|------------------------|
A|------------------------|------------------------|
E|------------------------|------------------------|

E|------------------------|------------------------|
B|12----------------------|(12)--------------------|
G|1615161516--------------|(16)--------------------|
D|------------------------|------------------------|
A|------------------------|------------------------|
E|------------------------|------------------------|

E|------------------------|------------------------|
B|(12)--------------------|(12)--------------------|
G|(16)--------------------|(16)--------------------|
D|------------------------|------------------------|
A|------------------------|------------------------|
E|------------------------|------------------------|

E|------------------------|------------------------|
B|------------------------|------------------------|
G|------------------------|------------------------|
D|------------------------|------------------------|
A|------------------------|------------------------|
E|------------------------|------------------------|

E|--------------------1214|15141514151412--12------|
B|----------------1214----|--------------14--------|
G|------------------------|-------------------2----|
D|------------------------|-------------------1----|
A|------------------------|-------------------3----|
E|------------------------|------------------01----|

E|------------------------|------------------------|
B|------------------------|------------------------|
G|1-----------------------|(1)---------------------|
D|0-----------------------|(0)---------------------|
A|2-----------------------|(2)---------------------|
E|0-----------------------|(0)---------------------|
Comments