Led Zeppelin - You Shook Me Chords & Tabs

 

You Shook Me Chords & Tabs

Led Zeppelin Chords & Tabs

Version: 1 Type: Bass Tab 0 ratings
1 star 2 stars 3 stars 4 stars 5 stars
comments

You Shook Me Bass Tab

Led Zeppelin

YOU SHOOK ME Bass Tab


Intro
G|------------------------|------------------------|
D|------------------2-----|------------2---2---0-1-|
A|--------------------3-2-|0---0-4---4-------4-----|
E|------------------------|------------------------|

G|------------------------|------------------------|
D|2---2-------------------|------------------------|
A|------------0---0-1---2-|------0-1-2-2---2-2---2-|
E|------4---4-------------|0---0-------------------|

Verses
G|------------------------|------------------------|
D|------------------------|------------------0-1-2-|
A|------------2---2-4-----|------------2---2-------|
E|0---0-4---4-----------3-|0---0-4---4-------------|

G|------------------------|------------------------|
D|------------------------|------------------0-1-2-|
A|------------2---2-4-----|------------2---2-------|
E|0---0-4---4-----------3-|0---0-4---4-------------|

G|------------------------|------------------------|
D|------------2---2-3-4-3-|------------2---2---012-|
A|0---0-4---4-------------|0---0-4---4-------4-----|
E|------------------------|------------------------|

G|------------------------|------------------------|
D|------------------------|------------------0-1-2-|
A|------------2---2-4-----|------------2---2-------|
E|0---0-4---4-----------3-|0---0-4---4-------------|
[ Tab from: http://www.guitartabs.cc/tabs/l/led_zeppelin/you_shook_me_btab.html ]
G|------------------2-3-4-|------------------------|
D|------1---1-4---4-------|------------2---2---0-12|
A|2---2-------------------|0---0-4---4-------4-----|
E|------------------------|------------------------|

G|------------------------|------------------------|
D|------------------------|2---2-------------------|
A|------------0---0-1---2-|------------2---2-2-0---|
E|0---0-4---4-------------|------4-5-6-----------3-|

G|------------------------|------------------------|
D|------------------------|------------------0-1-2-| Repeat same 12
A|------------2---2-5-----|------------2---2-------| bars until
E|0---0-4---4---------3-3-|0---0-4---4-------------|

G|------------------------|------------------------|
D|------------------------|------------------------|
A|------------------------|------------------------| Then go back to
E|5-----------------------|5-----------------------| repeating the 12 bars

Ending
G|------------------------|------------------------|
D|------------------------|------------------------|
A|------------------------|------------------------|
E|------------------------|--------------1---------|

G|------------------------|------------------------|
D|------------------------|------------------------|
A|------------------------|------------------------|
E|0-----------------------|------------------------|
Comments