Led Zeppelin - Whole Lotta Love Chords & Tabs

 

Whole Lotta Love Chords & Tabs

Led Zeppelin Chords & Tabs

Version: 2 Type: Tab 3 ratings
1 star 2 stars 3 stars 4 stars 5 stars
comments

Whole Lotta Love Tab

Led Zepplin
Whole Lotta Love

e-----------------------------------------------------
B-----------------------------------------------------
G-----------------------------------------------------
D----------------------------9---------9-----------9
A-----------5---------5-----7---------7-----------7
E------7---------7---------------0-0-------0-0-----
                                      [                                   ]
                                       \_________________/
Repeat this throughout the song. This \  8 times in the beginning after the first part. It may sound confusing but listen to the track and you?ll get it.

The b = bend, h= hammer on, p = pull off, s= slide

No lie this is the correct solo
	   /\/\/\/\/\
e------------------12-----15p12p0-15p12p0----------------------------------------------------------
B--------------12----------------------------------15p12p0--------------------------------------------
G---------b14-------------------------------------------------14p12p0---b14-------------------------
D----9-------------------------------------------------------------------------------------9---9--------
A----7-------------------------------------------------------------------------------------7---7--------
E----------------------------------------------------------------------------------------------------------
[ Tab from: http://www.guitartabs.cc/tabs/l/led_zeppelin/whole_lotta_love_tab_ver_2.html ]
e----------------------------------------------------------------------------------------------------------
B---------3-----------------------------------------------------------------------------------------------
G---3s4-----3p2p0---3p2p0---3p2p0---4p3p2p0---4p3p2p0-------------------------------------
D-----------------------------------------------------------------------4p3p2p0------------9---9-----
A--------------------------------------------------------------------------------------2------7---7-----
E----------------------------------------------------------------------------------------------------------
                                                  *Use pinky
e---------------12---------------b15-----------------------------15----b17-----------15--------------
B----------12-------b15-b15 --------b15-----------------17----------------17p15----------17-----
G---b14-------------------------------------------------------------------------------------------------
D------------------------------------------------9----9--------------------------------------------------
A------------------------------------------------7----7--------------------------------------------------
E----------------------------------------------------------------------------------------------------------

e--------------------19---17---15-----------------15-----------------12---14---b14-b15---17---
B-------------17-----------------------17p15-----------17------------------------------------------15
G---------------------------------------------------------------------------------------------------------
D---9---9-------------------------------------------------------9---9-----------------------------------
A---7---7-------------------------------------------------------7---7-----------------------------------
E----------------------------------------------------------------------------------------------------------
Comments