Led Zeppelin - When The Levee Breaks Chords & Tabs

 

When The Levee Breaks Chords & Tabs

Led Zeppelin Chords & Tabs

Version: 3 Type: Tab 0 ratings
1 star 2 stars 3 stars 4 stars 5 stars
comments

When The Levee Breaks Tab

When the Levee Breaks
Led Zeppelin

   
    

    Main Riff

                                                                 

C-|---------------------------------------------------------------------------
A-|---------------------------------------------------------------------------
F-|-----3\0-0-0-0--0-0---3\0-0--3\0-0-5-5-------------------------------------
C-|-----3\0-0-0-0--0-0---3\0-0--3\0-0-5-5-------------------------------------
A-|---------------------------------------------------------------------------
E-|---------------------------------------------------------------------------
                                                                   

    Every so often do a few of these...                                       
[ Tab from: http://www.guitartabs.cc/tabs/l/led_zeppelin/when_the_levee_breaks_tab_ver_3.html ]
C-|---8-8-8-8--8-8--8/10-10-10-10------3----0------3----0---------------------
A-|---8-8-8-8--8-8--8/10-10-10-10------3----3------3----3---------------------
F-|---8-8-8-8--8-8--8/10-10-10-10----5-3--5-0----5-3--5-0---------------------
C-|---8-8-8-8--8-8--8/10-10-10-10----5----5-0----5----5-0---------------------
A-|---------------------------------------------------------------------------
E-|---------------------------------------------------------------------------

                                                                            

    Don't make you feel bad...
                                                

C-|-----12-12-------7-7-------5-5-7-10-12-------------------------------------
A-|-----12-12-------7-7-------5-5-7-10-12-------------------------------------
F-|--0--12-12----0--7-7----0--5-5-7-10-12-------------------------------------
C-|--0--12-12----0--7-7----0--5-5-7-10-12-------------------------------------
A-|---------------------------------------------------------------------------
E-|---------------------------------------------------------------------------


Comments