Led Zeppelin - When The Levee Breaks Chords & Tabs

 

When The Levee Breaks Chords & Tabs

Led Zeppelin Chords & Tabs

Version: 1 Type: Tab 0 ratings
1 star 2 stars 3 stars 4 stars 5 stars
comments

When The Levee Breaks Tab


Key
---
p = pull off
h = hammer on
s = slide
~ = hold note
(s) = if you have a slide use it...but if you don't, pulling off sounds
just as good

On this song use a slide....but you don't have to

This is mostly copied from the original poster but I made some changes
that I think sound better.  But just to remind you that 100% of credit
doesn't goes to me.  Now here is the tuning on this song- 
(low to high)::EACFAC::
[ Tab from: http://www.guitartabs.cc/tabs/l/led_zeppelin/when_the_levee_breaks_tab.html ]
Main Riff (intro)             |alway played after the Main Riff
e|----------0~----------------|-5s8-8-8-8s10-10-10-10----
B|----------0~----------------|-5s8-8-8-8s10-10-10-10----
G|-3p(s)0---0~--3-0-0-3-0-0-3-|-5s8-8-8-8s10-10-10-10----
D|-3p(s)0---0~--3-0-0-3-0-0-3-|-5s8-8-8-8s10-10-10-10----
A|----------------------------|-------------|upstroke|--
E|----------------------------|--------------------------
                                              
after this go to main riff |before "Now when i make you feel bad.."    
e|---3---3---3~------------|---12-12----7-7----5-5-7-10-12---
B|-5-3-5-3-5-3~------------|---12-12----7-7----5-5-7-10-12---
G|-5-3-5-3-5-3~------------|-0-12-12--0-7-7--0-5-5-7-10-12---
D|-5---5---5---------------|-0-12-12--0-7-7--0-5-5-7-10-12---
A|-------------------------|---------------------------------
E|-------------------------|---------------------------------

That is all that there is...well most of it.

If you have any questions or comments please E-Mail me at 
WangoTango2112@AOL.com               
Comments