Led Zeppelin - When The Levee Breaks Chords & Tabs

 

When The Levee Breaks Chords & Tabs

Led Zeppelin Chords & Tabs

Version: 1 Type: Bass Tab 0 ratings
1 star 2 stars 3 stars 4 stars 5 stars
comments

When The Levee Breaks Bass Tab

   
When The Levee Breaks By Led Zeppelin
tabbed by Doug(appetite_for_destruction69@hotmail.com)
Drop D tuning

F-3-0-0--0-0-0-3-0-0-0-0--5-|
C---------------------------|
G---------------------------|
D---------------------------|

F-3-0-0--0-0-0-3-0-0-3-0-0-5-|
C----------------------------|
G----------------------------|
D----------------------------|

(0:20, 3:05)                                              3x
F-3-0-0---0------0--0-0-0------0--0--0-0-0-3-0-0-3-0-0-5--|
C------------3/4-----------3/4----------------------------|
G---------------------------------------------------------|
D---------------------------------------------------------|

F-3-0-0--0-0-0-3-0-0-3-0-0-5--|
C-----------------------------|
G-----------------------------|
D-----------------------------|
                                                       3x
F-3-0-0--0------0--0-0-0------0-0--0-0-0-3-0-0-3-0-0-5--|
C-----------3/4-----------3/4---------------------------|
G-------------------------------------------------------|
D-------------------------------------------------------|

F-3-0-0--0-0-0-3-0-0-3-0-0-5-4--|
C-------------------------------|
G-------------------------------|
D-------------------------------|

(1:08, 3:51)
F-3-3-3--------------------3---------3-----------|
C----------------------3-3----3-5--3----3-5------|
G--------2-3-3-3-3-5-5----------------------3-5--|
D------------------------------------------------|

F----------------------------3---------3--------|
C----------------------0-2-3----3-5--3----3-5~--|
G-1-1---0h1-2-3-3-3--2--------------------------|
D-----------------------------------------------|

Verses  (1:25, 4:08)                                      3x
F-3-0-0---0------0--0-0-0------0--0--0-0-0-3-0-0-3-0-0-5--|
C------------3/4-----------3/4----------------------------|
G---------------------------------------------------------|
D---------------------------------------------------------|

F-3-0-0--0-0-0-3-0-0-3-0-0-5--|
C-----------------------------|
G-----------------------------|
D-----------------------------|

F-3-0-0--0-0-0-3-0-0-3-0-0-5-4--|
C-------------------------------|
G-------------------------------|
D-------------------------------|

(2:12, 4:44)
F-3-3-3--------------------3---------3-----------|
C----------------------3-3----3-5--3----3-5------|
G--------2-3-3-3-3-5-5----------------------3-5--|
D------------------------------------------------|

F----------------------------3---------3--------|
C----------------------0-2-3----3-5--3----3-5~--|
G-1-1---0h1-2-3-3-3--2--------------------------|
D-----------------------------------------------|

Bridge  (2:26)
F-------------------------------------------------------|
C-5~~-------------5--5-5-----------------3-5-5-5-5-5-3--|
G-------------------------5-----3--3-3-5----------------|
D-------------------------------------------------------|
[ Tab from: http://www.guitartabs.cc/tabs/l/led_zeppelin/when_the_levee_breaks_btab.html ]
F--------------------------------------5--7-7-7--|
C-5--5-5-5----7-7-7-7-7----5--5-5-5-7--3--5-5-5--|
G-------------5-5-5-5-5----3--3-3-3-5------------|
D------------------------------------------------|
                                                   2x
F-7--7-7-7-------------------------------5--7-7-7--|
C-5--5-5-5----7-7-7-7-7-----5--5-5-5--7--3--5-5-5--|
G-------------5-5-5-5-5-----3--3-3-3--5------------|
D--------------------------------------------------|

F-7--7-7-7-----------------------------5--7-7~------|
C-5--5-5-5----7--7-7-7----5--5-5-5--7--3--5-5~---3--|
G-------------5--5-5-5----3--3-3-3--5---------------|
D---------------------------------------------------|

2nd Bridge  (5:08)
F-3-0-0-0-0--0-----------------------------------------|
C--------------5--5-5-5--5--5--5-5-5----5--5-5~-5-0-3--|
G------------------------------------------------------|
D------------------------------------------------------|

F----------------------------------------------------------|
C-5--5-5-5--5------------------------------3--5-5-5-3---3--|
G-------------7-5-5-5-5-5--5-3-3--3-3-3-5-------------5----|
D----------------------------------------------------------|
                                                    4x
F-7--7-7-7-------------------------------5--7-7-7--|
C-5--5-5-5----7-7-7-7-7-----5--5-5-5--7--3--5-5-5--|
G-------------5-5-5-5-5-----3--3-3-3--5------------|
D--------------------------------------------------|

Outro  (5:47)
F-3-0-0-0-0--0-0-3-0-0-0-0--0-0-3-0-0-0-0--0-0-3-0-0-3-0-0-5--|
C-------------------------------------------------------------|
G-------------------------------------------------------------|
D-------------------------------------------------------------|
                                                            2x
F-------------------------------------------------------------|
C-------------------------------------------------------------|
G----------------------------------------------------------3--|
D-6-3-3-3-3--3-3-6-3-3-3-3--3-3-6-3-3-3-3--3-3-6-3-3-6-3-3----|

F------------------------------------------------------------|
C-----------------------3-3----------------------------------|
G---------------------------3-----------------------------3--|
D-6-3-3-3-3--3-3--3-3-3--------3-3-3-3-3--3-3-6-3-3-6-3-3----|

F---------------------------------------------------------------|
C--------------------------------------------------------3---3--|
G----------------------------3-------------------------3---3----|
D-6-3-3-3-3--3-3-6-3-3-6-3-3----6-3-3-3-3--3-3-6-3-3-3----------|

F---------------------------------------------------------------|
C---------------------------------------------------------------|
G----------------------------3-------------------------2-3-4-5--|
D-6-3-3-3-3--3-3-6-3-3-6-3-3----6-3-3-3-3--3-3-6-3-3-6----------|

F---------------------------------------------------------------|
C---------------------------------------------------------------|
G----------------------------3---------------------------3-4-5--|
D-6-3-3-3-3--3-3-6-3-3-6-3-3----6-3-3-3-3--3-3-3-3-3-3-6--------|

F------------------------------------------------|
C------------------------------------------------|
G--------------------------3---------------------|
D-6-3-3-3-3--3-3-6-3-3-3-3----6-3-3-3-3--3-3~~~--|

~ = let ring
/ = slide
h = hamer-on
Comments