Led Zeppelin - Were Gonna Grroove Chords & Tabs

 

Were Gonna Grroove Chords & Tabs

Led Zeppelin Chords & Tabs

Version: 1 Type: Tab 2 ratings
1 star 2 stars 3 stars 4 stars 5 stars
comments

Were Gonna Grroove Tab

This is the correct way to play this song. I saw it on the led Zeppelin DVD.
First ever tab. For this song you have to groove these are the chords so just groove with it and listen to the song. It is farely easy but I don’t know the solo. Ill put that on later.

Intro
e:-------------------------------------------------------------------------------------
B:----8--8--8--8-----------------------------------------------------------------------
G:----7--7--7--7-----------------------------------------------------------------------
D:----6--6--6--6-----------------------------------------------------------------------
A:----7--7--7--7-----------------------------------------------------------------------
E:-------------------------------------------------------------------------------------

[ Tab from: http://www.guitartabs.cc/tabs/l/led_zeppelin/were_gonna_grroove_tab.html ]
Verse 1
e:--------------------------------------------------------------------------------------------
B:---------8--8--8--8----------8--8--8--8----------8--8--8--8------8--8--8--8--x--8--8--8--8--
G:---------7--7--7--7----------7--7--7--7----------7--7--7--7------7--7--7--7--x--7--7--7--7--
D:---------6--6--6--6----------6--6--6--6----------6--6--6--6------6--6--6--6--x--6--6--6--6--
A:---------7--7--7--7----------7--7--7--7----------7--7--7--7------7--7--7--7--x--7--7--7--7--
E:--0--0--0--0--0--0--0000--0--0--0--0--0000--0--0--0--0--00--0-0--0--0---x-0--0--0--0--0--0--


Verse 2
e:---------------------------------------------------------------5~-----------------------------
B:---------8--8--8--8---9--11--12~----------8---8--8--8--9---7---5~-----------------------------
G:---------7--7--7--7---9--11--12~----------7---7--7--7--9---7---6~-----------------------------
D:---------6--6--6--6---9--11--12~----------6---6--6--6--9---7---7~-----------------------------
A:---------7--7--7--7---7---9---10~---------7---7--7--7--7---5---7~----------------------
E:--0--0--0--0--0--0-------------------0--0--0--0--0--0----------5~----------------------------

See my baby comin down the track                I bet you my baby’s coming back

chorus
e:--5---3--5-----x-x-x-x-x-x--5--3--5----x-x-x-x-x-x--5--3--5-x-x-x-x-x-x--7--5--7---------
B:--5---3--5----x-x-x-x-x-x--5--3--5----x-x-x-x-x-x--5--3--5-x-x-x-x-x-x--7--5--7---------
G:--6---4--6----x-x-x-x-x-x--6--4--4----x-x-x-x-x-x--6--4--6-x-x-x-x-x-x--6--4--6---------
D:--7---5--7----x-x-x-x-x-x--7--5--7----x-x-x-x-x-x--7--5--7-x-x-x-x-x-x--7--5--7---------
A:--7---5--7----x-x-x-x-x-x--7--5--7----x-x-x-x-x-x--7--5--7-x-x-x-x-x-x--7--5--7---------
E:---5--3--5----x-x-x-x-x-x--5--3--5----x-x-x-x-x-x--5--3--5-x-x-x-x-x-x--5--3--5---------

Were gonna groove                yeah groove                                                      and were gonna groove
Comments