Led Zeppelin - Walters Walk Chords & Tabs

 

Walters Walk Chords & Tabs

Led Zeppelin Chords & Tabs

Version: 1 Type: Tab 0 ratings
1 star 2 stars 3 stars 4 stars 5 stars
comments

Walters Walk Tab

   
-----------------------------------------------------------------------------
			     SONG NAME - Band Name
-----------------------------------------------------------------------------
Tabbed by:MEEEEEEEEEEEE
     yeah so a while back I was looking for walter's walk (becuase I use it in
dazed and confused to make it longer bwhahahah and because it sounds awesome) and
I did not find it.  So I went out and bought coda (an abhorrid sin that I did no
 already have it!) and tabbed it out myself... which is amazing seeing as how lazy
 can be.  anyhoo- I found a good few guitar parts in it so I will try to include
them all.  I am pretty freaky deaky sure this is exactly how it goes- so if you think
it is incorrect then I typo'd.  anyhoo- I decided to include the beats and counting
because no one does that and it angers me- so if your like me and jsut want to use
a section for dazed and confused you don't have to get coda (though you should-it
is awesome as most zeppelin cd's are) and you can have the beats in the tab.  By the
way- this is my first tab.
[ Tab from: http://www.guitartabs.cc/tabs/l/led_zeppelin/walters_walk_tab.html ]
Tuning:standardo (standerd)
(ok- I will include the words later if I feel like it.)
the tempo is 172ish  pretty fast sorta.
guitar 1 (intro)
  1+2+3+4+   1   +   2   +   3   +   4   +   1   +   2    +   3   +  4   +
e|---------|-------------------------------|---------------------------------|
B|---------|-------------------------------|---------------------------------|
G|---------|---------12--12--12------------|-----12-12b13-----12--12---------|
D|-------12|(12)-----12--12--12--14------12|(12)-12-----------12--14-----12--|
A|-------12|(12)-14------14----------0---12|(12)-14-------14-------------12--|
E|---------|-------------------------------|-------------------------0-------|
   1   +  2  +  3   +   4  +  1  +  2  +  3  +  4  +
e|--------------------------|------------------------|
B|--------------------------|------------------------|
G|--------12---12--13-------|-r-----r-----------r----|
D|(12)----12---12--14------9|----9-----9--7--9-----12|
A|(12)-14----14---------0--7|----7-----7--5--7-----12|
E|----------------------0---|------------------------|
   1   +   2   +  3   +   4  +  1   +  2  +  3   +  4  +
e|----------------------------|-------------------------|
B|----------------------------|-----------------12------|
G|--------12------12------r---|--------12----12-12--r---|
D|(12)----12----------12----12|(12)----12-12-12-------12|
A|(12)14------14------12----12|(12)-14----------------12|
E|----------------------------|-------------------------|
(ok- the counting stays the same for these measures)
e|-------------------------|-------------------------------------------------|
B|-------------------------|-------------------------------------------------|
G|--------12----12-13------|--r---r--------r---------------------------------|
D|(12)----12----12-14-----9|----9---9-7-9------------------------------------|
A|(12)-14----14--------0--7|----7---7-5-7------------------------------------|
E|---------------------0---|------------------3------------------------------|
I will post the riffs and solo later as I am tired and wish to play my guitar.
| /  slide up
| \  slide down
| h  hammer-on
| p  pull-off
| ~  vibrato
| x  Mute note
| r  rest on beat accordingly
Comments