Led Zeppelin - Trampled Underfoot Chords & Tabs

 

Trampled Underfoot Chords & Tabs

Led Zeppelin Chords & Tabs

Version: 3 Type: Tab 0 ratings
1 star 2 stars 3 stars 4 stars 5 stars
comments

Trampled Underfoot Tab

Trampled Underfoot
Led Zeppelin

Heres the main riff:

e---------------------------------------------------------------------------
b-2-3-----------------------------------------------------------------------
g-2-3--2-3-0-------0--------------------------------------------------------
d------------3-0-3----------------------------------------------------------
a---------------------------------------------------------------------------
E---------------------------------------------------------------------------

And this ascending part:

e------5-5-5-------7-7-7---------10-10-10----------12-12-12-----------------
b---------------------------------------------------------------------------
g--4/6---------6/8---------9/11--------------11/13--------------------------
d---------------------------------------------------------------------------
a---------------------------------------------------------------------------
E---------------------------------------------------------------------------
[ Tab from: http://www.guitartabs.cc/tabs/l/led_zeppelin/trampled_underfoot_tab_ver_3.html ]
And after that this is played:

e--11--11-------------------------11-11-------------------------------------
b--11--12--11-12------------------11-12-11-12-------------------------------
g-----------------12-10----10-12--------------12-10----10-12\---------------
d-----------------------12--------------------------12----------------------
a---------------------------------------------------------------------------
E---------------------------------------------------------------------------

And the chord before the keyboard solo and at the end of the song:

e---------------------------------------------------------------------------
b---------------------------------------------------------------------------
g---7-----------------------------------------------------------------------
d---5-----------------------------------------------------------------------
a---------------------------------------------------------------------------
E---------------------------------------------------------------------------



Comments