Led Zeppelin - Trampled Under Foot Chords & Tabs

 

Trampled Under Foot Chords & Tabs

Led Zeppelin Chords & Tabs

Version: 1 Type: Tab

Trampled Under Foot Tab

Key:
/ = slide
x = mute note

Into with the clav [with sweat picking]:
e-----------------------|
b-----------------------|
g----------3------------|
d----5-3-5---5-x-3-3-5--|
a-----------------------|
E-3---------------------| x 2

e-------------------------------------------------------------------------|
b-------------------------------------------------------------------------|
g----------3---------------------3--------------------3-------------------|
d----5-3-5---5-x-3-3-5-----5-3-5---5-x-3-3-5----5-3-5---5-x-3-3-5---------|
a-------------------------------------------------------------------------|
E-3----------------------3--------------------3---------------------------|
 greasy slicked down   groovy leather trim  like the way you hold the road

e-------------------------------------------------------------------------|
b-------------------------------------------------------------------------|
g----------3---------------------3--------------------3-------------------|
d----5-3-5---5-x-3-3-5-----5-3-5---5-x-3-3-5----5-3-5---5-x-3-3-5---------|
a-------------------------------------------------------------------------|
E-3----------------------3--------------------3---------------------------|
 ma it ain't no sin     talkn' bout love     talkn' bout love
[ Tab from: http://www.guitartabs.cc/tabs/l/led_zeppelin/trampled_under_foot_tab.html ]
e-----------------6------8---------------------------------------------------|
b---------------------------10-11--11----------------10-11--11---------------|
g--------------/7---7-/9--------------12-x-10-10-12------------12-x-10-10-12-|
d----------------------------------------------------------------------------|
a----------------------------------------------------------------------------|
E----------------------------------------------------------------------------|
 talkn' about..

rythem chages too:
e---------------------------------------------------------------------|
b---------------------------------------------------------------------|
g--2-3--3-------------------2-3--3---------------2-3--3---------------|
d--------5-x-3-3-5-----------------5-x-3-3-5------------5-x-3-3-5-----|
a---------------------------------------------------------------------|
E---------------------------------------------------------------------|
 grooving on the freeway,  gadges on the red,   gun down on my gasoline

e----------------------------------------------------------------------------|
b----------------------------------------------------------------------------|
g--2-3--3-----------------------------2-3--3---------------2-3--3------------|
d--------5-x-3-3-5--------------------------5-x-3-3-5--------------5-x-3-3-5-|
a----------------------------------------------------------------------------|
E----------------------------------------------------------------------------|
 belive i'm gonna crack your head    talkn' bout love     talkn' bout love

e-----------------6-------8--------11---------13----------------------------|
b---------------------------------------------------------------------------|
g--------------/7---7--/9---9--/12----12--/14-------------------------------|
d---------------------------------------------------------------------------|
a---------------------------------------------------------------------------|
E---------------------------------------------------------------------------|
 talkn' about..  [every couple of verses Jimmy throws in the 2 extra slides]

song repeats same pattern