Led Zeppelin - The Wanton Song Chords & Tabs

 

The Wanton Song Chords & Tabs

Led Zeppelin Chords & Tabs

Version: 3 Type: Tab 0 ratings
1 star 2 stars 3 stars 4 stars 5 stars
comments

The Wanton Song Tab

Standard Tuning

E|----------------|----------------|----------------|----------------|
B|----------------|----------------|----------------|----------1--2--|
G|----------------|----------------|----------------|----------2--3--|
D|--5---55--------|--5---55--------|--5---55--------|--5---555-3--4--|
A|----------------|----------------|----------------|----------------|
E|33-333----------|33-333----------|33-333----------|33-333----------|

E|----------------|----------------|----------------|----------------|----------------||
B|----------------|----------------|----------------|----------------|----------------||
G|----------------|----------------|----------------|----------------|7--6--5---3-----||
D|--5---55--------|--5---55--------|--5---55--------|--5---55------3-|----------3-----||
A|----------------|----------------|----------------|---------3-4-5-5|-5--4--3--1-----||
E|33-333----------|33-333----------|33-333----------|33-333----------|----------------||

E|----------------|----------------|----------------|----------------|
B|----------------|----------------|----------------|----------1--2--|
G|----------------|----------------|----------------|----------2--3--|
D|--5---55--------|--5---55--------|--5---55--------|--5---555-3--4--|
A|----------------|----------------|----------------|----------------|
E|33-333----------|33-333----------|33-333----------|33-333----------|
  Silent woman in the night you came.....

E|----------------|----------------|----------------|----------------|----------------||
B|----------------|----------------|----------------|----------------|----------------||
G|----------------|----------------|----------------|----------------|7--6--5---3-----||
D|--5---55--------|--5---55--------|--5---55--------|--5---55------3-|----------3-----||
A|----------------|----------------|----------------|---------3-4-5-5|-5--4--3--1-----||
E|33-333----------|33-333----------|33-333----------|33-333----------|----------------||

E|----------------|----------------|----------------|----------------|
B|----------------|----------------|----------------|----------1--2--|
G|----------------|----------------|----------------|----------2--3--|
D|--5---55--------|--5---55--------|--5---55--------|--5---555-3--4--|
A|----------------|----------------|----------------|----------------|
E|33-333----------|33-333----------|33-333----------|33-333----------|
  Silent woman from the flames you come.....

E|----------------|----------------|----------------|----------------|----------------||
B|----------------|----------------|----------------|----------------|----------------||
G|----------------|----------------|----------------|----------------|7--6--5---3-----||
D|--5---55--------|--5---55--------|--5---55--------|--5---55------3-|----------3-----||
A|----------------|----------------|----------------|---------3-4-5-5|-5--4--3--1--111||
E|33-333----------|33-333----------|33-333----------|33-333----------|----------------||

E|3-------3-------|----------------|------------3---|--------------5-|
B|1-------1-1---3-|--------3-4-3-4-|--------4-6---5-|--------5-6-8-3-|
G|1-------1-1---4-|--------4-----3-|--------3-----3-|--------3-----5-|
D|3-------3-3---3-|--------3-----5-|--------------5-|--------5-------|
A|----------------|----------------|----------------|----------------|
E|----------------|----------------|----------------|----------------|

E|----------------|----------------|----------------|---------------5|
B|5-65--5---------|----------------|----------------|---------------5|
G|------5-----5---|3-----3333--3---|5-65--5-------3-|--------3---5--5|
D|------5-75--5---|3-55-----3--3---|------5---75--3-|----------------|
A|----------7-----|----5-----55--5-|----7-5-----7-5-|----5-45-457-67-|
E|----------------|----------------|----------------|----------------|
         \3/

E|----------------|----------------|----------------|----------------||
B|5-65--5---------|----------------|----------------|----------------||
G|------5-----5---|3-----3333--3---|5-65--5-------3-|----------3-----||
D|------5-75--5---|3-55-----3--3---|------5---75--3-|--53------3-----||
A|----------7-----|----5-----55--5-|----7-5-----7-5-|----5---35------||
E|----------------|----------------|----------------|----------------||
         \3/

E|----------------|----------------|----------------|----------------|
B|----------------|----------------|----------------|----------1--2--|
G|----------------|----------------|----------------|----------2--3--|
D|--5---55--------|--5---55--------|--5---55--------|--5---555-3--4--|
A|----------------|----------------|----------------|----------------|
E|33-333----------|33-333----------|33-333----------|33-333----------|
  Silent woman in the night you came.....

E|----------------|----------------|----------------|----------------|----------------||
B|----------------|----------------|----------------|----------------|----------------||
G|----------------|----------------|----------------|----------------|7--6--5---3-----||
D|--5---55--------|--5---55--------|--5---55--------|--5---55------3-|----------3-----||
A|----------------|----------------|----------------|---------3-4-5-5|-5--4--3--1-----||
E|33-333----------|33-333----------|33-333----------|33-333----------|----------------||

E|----------------|----------------|----------------|----------------|
B|----------------|----------------|----------------|----------1--2--|
G|----------------|----------------|----------------|----------2--3--|
D|--5---55--------|--5---55--------|--5---55--------|--5---555-3--4--|
A|----------------|----------------|----------------|----------------|
E|33-333----------|33-333----------|33-333----------|33-333----------|
  Silent woman from the flames you come.....

E|----------------|----------------|----------------|----------------|----------------||
B|----------------|----------------|----------------|----------------|----------------||
G|----------------|----------------|----------------|----------------|7--6--5---3-----||
D|--5---55--------|--5---55--------|--5---55--------|--5---55------3-|----------3-----||
A|----------------|----------------|----------------|---------3-4-5-5|-5--4--3--1--111||
E|33-333----------|33-333----------|33-333----------|33-333----------|----------------||
[ Tab from: http://www.guitartabs.cc/tabs/l/led_zeppelin/the_wanton_song_tab_ver_3.html ]
E|3-------3-------|----------------|------------3---|--------------5-|
B|1-------1-1---3-|--------3-4-3-4-|--------4-6---5-|--------5-6-8-3-|
G|1-------1-1---4-|--------4-----3-|--------3-----3-|--------3-----5-|
D|3-------3-3---3-|--------3-----5-|--------------5-|--------5-------|
A|----------------|----------------|----------------|----------------|
E|----------------|----------------|----------------|----------------|

E|----------------|----------------|----------------|---------------5|
B|5-65--5---------|----------------|----------------|---------------5|
G|------5-----5---|3-----3333--3---|5-65--5-------3-|--------3---5--5|
D|------5-75--5---|3-55-----3--3---|------5---75--3-|----------------|
A|----------7-----|----5-----55--5-|----7-5-----7-5-|----5-45-457-67-|
E|----------------|----------------|----------------|----------------|
         \3/

E|----------------|----------------|----------------|----------------||
B|5-65--5---------|----------------|----------------|----------------||
G|------5-----5---|3-----3333--3---|5-65--5-------3-|----------3--3--||
D|------5-75--5---|3-55-----3--3---|------5---75--3-|--53------------||
A|----------7-----|----5-----55--5-|----7-5-----7-5-|----5-5545-45-45||
E|----------------|----------------|----------------|----------------||


  Guitar Solo
E|----------------|----------------|-------------5--|----------------|
B|8---6-----------|----------------|10868-------5-8-|--------------5-|
G|--------------5-|----------------|--------5-7-----|----------------|
D|--------8-3-5---|----------------|----------------|----------------|
A|----------------|----------------|----------------|----------------|
E|----------------|----------------|----------------|----------------|
 |                                                                   |
E|----------------|----------------|----------------|----------------|
B|----------------|----------------|----------------|----------------|
G|3---3---3-2-3-5-|--5-5-5-5-7-5---|----------------|--------------2-|
D|3---3---3-2-3-5-|--5-5-5-5-7-5-2-|3---3---3-3---5-|--555-----5-5-2-|
A|1---1---1-0-1-3-|--3-3-3-3-5-3-0-|3---3---3-3-2-5-|--555-----5-5-0-|
E|----------------|----------------|1---1---1-1-0-3-|--333-330-3-3---|


E|----------------|------------6-7-|8--10-8---------|----------------|
B|7--7--7--7753-5-|----------10----|---------6--6-68|8---------------|
G|-------------5--|----------------|-----------7-7--|----------------|
D|----------------|----------------|----------------|----------------|
A|----------------|----------------|----------------|----------------|
E|----------------|----------------|----------------|----------------|
 |\--3--/                    \--3-/ \--3--/     \-3/                 |
E|----------------|----------------|----------------|----------------|
B|----------------|----------------|----------------|----------------|
G|3---3---3-2-3-5-|--5-5-5-5-7-5---|----------------|----------------|
D|3---3---3-2-3-5-|--5-5-5-5-7-5-2-|----------------|--5-5----55-55--|
A|1---1---1-0-1-3-|--3-3-3-3-5-3-0-|3---3---3-2-3---|--5-5----55-55--|
E|----------------|----------------|1---1---1-0-1---|3-----333-----11|


E|------6---------|----------------|----------------|----------------|
B|---7------------|----------5-6-8-|---6--8-6-5---5-|3-3-3---------6-|
G|----------75-355|--------5-------|------------5---|-4-4----------5-|
D|----------------|----------------|----------------|----------------|
A|----------------|----------------|----------------|----------------|
E|----------------|----------------|----------------|----------------|
 |\--3--/                           \--3--/   \--3-/                 |
E|----------------|----------------|----------------|----------------|
B|----------------|----------------|----------------|----------------|
G|3---3---3-2-3-5-|--5-5-5-5-7-5---|----------------|--------------2-|
D|3---3---3-2-3-5-|--5-5-5-5-7-5-2-|3-3-3-3-3-2-3-4-|5-5-5-5-5-5-5-2-|
A|1---1---1-0-1-3-|--3-3-3-3-5-3-0-|3-3-3-3-3-2-3-4-|5-5-5-5-5-5-5-0-|
E|----------------|----------------|1-1-1-1-1-0-1-2-|3-3-3-3-3-3-3---|


E|----------------|----------------|----------------|----------------||
B|6-6---6-----6---|6-------------5-|8---8---6-5--5--|----------------||
G|7-5-7-5-7-557-55|7-5-----5-5-5---|------------5-7-|(7)-------------||
D|----------------|----------------|----------------|----------------||
A|----------------|----------------|----------------|----------------||
E|----------------|----------------|----------------|----------------||
 |                                                                   ||
E|----------------|----------------|----------------|----------------||
B|----------------|----------------|----------------|----------------||
G|3---3---3-2-3-5-|--5-5-5-5-7-5---|----------------|--------3-------||
D|3---3---3-2-3-5-|--5-5-5-5-7-5-2-|3---3---3-3-3-5-|--------3-------||
A|1---1---1-0-1-3-|--3-3-3-3-5-3-0-|3---3---3-3-3-5-|--------1-------||
E|----------------|----------------|1---1---1-2-2-3-|----------------||


E|----------------|----------------|----------------|----------------|
B|----------------|----------------|----------------|----------1--2--|
G|----------------|----------------|----------------|----------2--3--|
D|--5---55--------|--5---55--------|--5---55--------|--5---555-3--4--|
A|----------------|----------------|----------------|----------------|
E|33-333----------|33-333----------|33-333----------|33-333----------|
  Silent woman my face has changed.....

E|----------------|----------------|----------------|----------------|
B|----------------|----------------|----------------|----------------|
G|----------------|----------------|----------------|----------------|
D|--5---55--------|--5---55--------|--5---55--------|--5---55------3-|
A|----------------|----------------|----------------|---------3-4-5-5|
E|33-333----------|33-333----------|33-333----------|33-333----------|

E|----------------|----------------|----------------|----------------|
B|----------------|----------------|----------------|----------------|
G|7--6--5---3333--|7--6--5---3333--|7--6--5---3333--|7--6--5---3333--|
D|----------3333--|----------3333--|----------3333--|----------3333--|
A|-5--4--3-11111--|-5--4--3-11111--|-5--4--3-11111--|-5--4--3-11111--|
E|----------------|----------------|----------------|----------------|

E|----------------|----------------|----------------|----------------||
B|----------------|----------------|----------------|----------------||
G|7--6--5---3333--|7--6--5---3333--|7--6--5--3------|(3)-------------||
D|----------3333--|----------3333--|---------3------|(3)-------------||
A|-5--4--3-11111--|-5--4--3-11111--|-5--4--311------|(1)-------------||
E|----------------|----------------|----------------|----------------|
Comments