Led Zeppelin - The Wanton Song Chords & Tabs

 

The Wanton Song Chords & Tabs

Led Zeppelin Chords & Tabs

Version: 1 Type: Bass Tab 0 ratings
1 star 2 stars 3 stars 4 stars 5 stars
comments

The Wanton Song Bass Tab

  Led Zeppelin
(The Wanton Song)


Main Riff

E)---------------------------|---------------------------|
A)------5---5-------5---5----|------5---5-------5---5----|
D)---------------------------|---------------------------|  *PLAY 3 TIMES*
G)--3--3------3--3-----------|--3--3------3--3-----------|

Break Riff
[ Tab from: http://www.guitartabs.cc/tabs/l/led_zeppelin/the_wanton_song_btab.html ]
E)---------------------|-------------------------------|-7---6---5---3--|
A)------5--5-------5--5|-----5--5----5--5---------3----|----------------|
D)---------------------|------------------3--4--5----5-|--5--4---3---1--|
G)--3--3-----3--3------|-3--3-----3--3-----------------|----------------|

It's not all the song but it's the best as i can do hope u live it who ever u are.
Comments