Led Zeppelin - The Song Remains The Same Chords & Tabs

 

Led Zeppelin Chords & Tabs

Version: 1 Type: Tab 0 ratings
1 star 2 stars 3 stars 4 stars 5 stars
comments

The Song Remains The Same Tab

   
      RAIN SONG INTRO THE REST WILL FALL INTO PLACE
TUNE EADADE  BSTRING>D

From The Song Remains The Same-GUITAR WORLD NOV 1988
 
E=-0----0-----|-0-------0---|---------0-3-|---------------|-----------0-------|
D=-7--7---7-7-|-6-6---6-----|---5-5-3-x-3-|-------3-------|-----------11------|
A=-0-0------0-|-0---0-------|---4-4-4-4-3-|-----3-------2-|-4-4-----0-0-------|
D=-7----------|-6-----------|---5-5-5-5-3-|---3---------2-|-2-2---2---11------|
A=-0----------|-0---------0-|-0-----------|-0-------0-0-0-|---0-0-------------|
E=------------|-------------|-------------|---------------|-------------------|
[ Tab from: http://www.guitartabs.cc/tabs/l/led_zeppelin/the_song_remains_the_same_tab.html ]
E=-0-0--0--0-|-----0-------0--|--------------|---0-0-------------|
D=-9-12-11-4-|-9---9-----9-11-|--------------|-9-9-9-----9--10-9-|
A=-0-0--0--0-|---0---------0--|--------------|---0-0-----10-11-10|
D=-9-12-10-4-|-9-9-----9---11-|--------------|-----9---9-------11|
A=-----------|---8---8--------|-repeat bar 6-|-------8-----------|
E=---------------------------------------------------------------|
                                              *********************
E=--------0---0--|----------------|-5-5-5-5-5-|next few bars follow same
D=------9---9-9--|---------9----5-|---------0-|pattern until
A=----10------10-|------10--------|-----------|
D=--11--------10-|--10-------10-5-|-4-----4-5-|
A=-0-------------|-0---0----------|---5-5-----|
E=---------------|----------------|-----------|
 ********************************************* repeat star section 3 times,impro
E=-------------------|---------------------|--------------------|
D=-2-2---------------|---------------------|------------------2-|
A=-4-4-2-4-0-2--0--2-|-4-4-2-4-0-2---0---2-|-4-4-2-4-0-2---0--2-|
D=-2-2--------4--2-3-|-3-3---------4---2-4-|-4-4---------4----5-|
A=-0---------------0-|-0-----------------0-|-0----------------0-|
E=--------------------------------------------------------------|
                        h p
E=-----2-------|-------4-5-4-----2-|---4-------4-------4---|
D=-------2-----|-------------4---2-|-2---2---2---2---2---2-|
A=---4-----4---|-----4---------4---|-----------------------|
D=-5-5-------5-|-4---4-----------2-|---2---0---------------|
A=-0-0---------|---5---------------|---------------4-------|
E=-------------|-------------------|-----------------------|
        h p             h p
E=-0-2-0-2-0-----|---2-0-2-0-------|---2----------------------------
D=-0---------0---|-0---------0-----|---2----------------------------
A=-0-----------0-|-0-----------0-2-|-4-4----------------------------
D=-0-------------|-0-------------2-|-2------------------------------
A=-2-------------|-2---------------|-0------------------------------ etc
E=---------------|-----------------|--------------------------------
This song sounds a million times better with the alternate tuning,if you're
a Zeppelin fan Page does'nt play better.This is the most beautiful thing
to come from any axe!!!
                                DMITRI

Comments