Led Zeppelin - The Rover Chords & Tabs

 

The Rover Chords & Tabs

Led Zeppelin Chords & Tabs

Version: 3 Type: Bass Tab 0 ratings
1 star 2 stars 3 stars 4 stars 5 stars
comments

The Rover Bass Tab

Artist:Led Zeppelin
Song:The Rover
Tabbed By:Gary Hricewich
Email:snapper2001@msn.com
[ Tab from: http://www.guitartabs.cc/tabs/l/led_zeppelin/the_rover_btab_ver_3.html ]
               
 Intro  
G-------------|
D---0-2---0-2-|
A-------------|
E-------------|
               
               
                                     
 Verse
G-----------------------------------|
D---2-2-2-2-2-2-2-2-2-2-2-2-2-2-2-2-|
A-----------------------------------|
E-----------------------------------|
                                     
                                                                        
 Chorus  
G------------------------|--------------2-2-2---|----------------------|
D---0-2-4--4-4-4-2-2-2-0-|-0-2-4--4-4-4-------2-|-0-2-4--4-4-4-2-2-2-0-|
A------------------------|----------------------|----------------------|
E------------------------|----------------------|----------------------|
                                                                        
                                                                             
                                                                Chorus End
G----------------2-2-2---|----------------------|---------------------------|
D---0-2-4--4-4-4-------2-|-0-2-4--4-4-4-2-2-2-0-|-0-0-----------------------|
A------------------------|----------------------|-----4-4-3-2-2-2-2-2-2-2-3-|
E------------------------|----------------------|---------------------------|
Comments