Led Zeppelin - The Ocean Chords & Tabs

 

The Ocean Chords & Tabs

Led Zeppelin Chords & Tabs

Version: 5 Type: Tab 0 ratings
1 star 2 stars 3 stars 4 stars 5 stars
comments

The Ocean Tab

   
                         the ocean
                             by: led zepplin
                                 tabbed by: will



[ Tab from: http://www.guitartabs.cc/tabs/l/led_zeppelin/the_ocean_tab_ver_5.html ]
------------------------------------x-------------------------------------------|
--------------------------------------x-----------------------------------------|
----------------------------------------x---------------------------------------|
-----------------5h7-5h7-5----------------x--------5-------7------7-------------|
----------------------------7---------------x--5h7-----5h7------4----5-7--------|
-------------------------------8------------------------------------------------|

-------------------------------------|
-------------------------------------|
-------------------------------------|
------------11-9---------------------|
-----------------12-11-9-------------|
--------------------------12-9-7-----|


and the chords are:                    ending:

Dx4   Cx4 A  G  A   Dx4                       Dxalot

 wow it is an easy song to play so if there is a problem then email me im at du
im at dummerfallhammer@hotmail.com

               so peace out'
                      -will-
Comments