Led Zeppelin - The Girl I Love She Has Long Black Wavy Hair Chords & Tabs

 

The Girl I Love She Has Long Black Wavy Hair Chords & Tabs

Led Zeppelin Chords & Tabs

Version: 1 Type: Tab 3 ratings
1 star 2 stars 3 stars 4 stars 5 stars
comments

The Girl I Love She Has Long Black Wavy Hair Tab

           ########################
           ##THIS IS 100% CORRECT##
           ########################

Riff 1:
|------------------------------------------|
|------------------------------------------|
|------------------------------------------|
|-------7-5-----5-----5-75----------------|
|--0-0-------7-----7---------0-0-----------|
|---------------------------------3-0-3-5--|

Riff 1b:
|---------------------------------------------|
|---------------------------------------------|
|---------------------------------------------|
|-------7-5-----5-----5-75-------7-5-----5---|
|--0-0-------7-----7---------0-0-------7------|
|---------------------------------------------|
[ Tab from: http://www.guitartabs.cc/tabs/l/led_zeppelin/the_girl_i_love_she_has_long_black_wavy_hair_tab.html ]
Riff 2:                                   (7/14 & 7/10 only on intro)
|------------------------------------------------------|
|------------------------------------------------------|
|-------7-5-----5-----5-7-------7-5-----5--7/14--7/10--|
|--0-0-------7-----7-------0-0-------7-----------------|
|------------------------------------------------------|
|------------------------------------------------------|

Riff 2b:
|------------------------------------------------------|
|------------------------------------------------------|
|-------7-5-----5-----5-7------------------------------|
|--0-0-------7-----7-------0-0-------------------------|
|-------------------------------3-0-3-5----------------|
|------------------------------------------------------|

Riff 3:
|---------------------|
|---------------------|
|---9------7------5---|
|---9------7------5---|
|---7------5------3---|
|---7------5------3---|

play thus pattern throughout the song
	
Riff 1 - 2x		
Riff 2 - 1x		  
Riff 1b - 1x		   
Riff 3 - 1x		
Riff 1 - 1x	
Comments