Led Zeppelin - The Crunge Chords & Tabs

 

The Crunge Chords & Tabs

Led Zeppelin Chords & Tabs

Version: 2 Type: Tab 0 ratings
1 star 2 stars 3 stars 4 stars 5 stars
comments

The Crunge Tab

Riff [1]
========

e:--12-12-12-14-12---X-12---X-X-12---X-12--|
B:--12-12-12-14-12---X-12---X-X-12---X-12--|
G:--12-12-12-14-12---X-12---X-X-12---X-12--|
D:-----------------------------------------|
A:-----------------------------------------|
E:-----------------------------------------|

Riff [2]
========
[ Tab from: http://www.guitartabs.cc/tabs/l/led_zeppelin/the_crunge_tab_ver_2.html ]
e:-5---5-5--X-X-X-4--5--X-X-X-4--5--4--5---6-----|
B:-5---5-5--X-X-X-4--5--X-X-X-4--5--4--5---6-----|
G:-5---5-5--X-X-X-4--5--X-X-X-4--5--4--5---6-----|
D:-----------------------------------------------|
A:-----------------------------------------------|
E:-----------------------------------------------|

Riff [3]
========

e:--12-12-12-14-12---X-12---X-X-----------|
B:--12-12-12-14-12---X-12---X-X-15b--15b--|
G:--12-12-12-14-12---X-12---X-X-14b--14b--|
D:----------------------------------------|
A:----------------------------------------|
E:----------------------------------------|

Riff [4]
========

e:--12-12-12-14-12---X-14-12--X-X-----------|
B:--12-12-12-14-12---X-14-12--X-X-15b--15b--|
G:--12-12-12-14-12---X-14-12--X-X-14b--14b--|
D:------------------------------------------|
A:------------------------------------------|
E:------------------------------------------|
Comments