Led Zeppelin - The Battle Of Evermore Chords & Tabs

 

The Battle Of Evermore Chords & Tabs

Led Zeppelin Chords & Tabs

Version: 2 Type: Tab 0 ratings
1 star 2 stars 3 stars 4 stars 5 stars
comments

The Battle Of Evermore Tab

   
Led Zeppelin
The Battle of Evermore
Tabber: Brian Gelvin
E-mail: rockin_vampire26@yahoo.com

I heard that someone wanted this as an individual tab instead of in my Early Days Album.


There are 6 Guitar parts:
Mandolins 1, 2, and 3*
Guitars 1 and 2 (1=6-string 2=12-string)
Finger picked Guitar (6-string)
*Arranged for Guitar with capo at 10.  All notes in TAB at 10 are open strings.

Key:
()=optional note
h=hammer
x=finger mute
b=bend 1/2 step


Mythical Folk Ballad freely Q=144
With a strong half-time feel

Intro: Slow fade in.
Mandolins 1 and 2
|--------12--12--12--12--12--12--12--12--12--12--12--12--12--12--|
|13--13--13------13--13--13------13--13--13------13--13--13------|
|14--14----------14--14----------14--14----------14--14----------|
|----------------------------------------------------------------|
|----------------------------------------------------------------|
|----------------------------------------------------------------|


|--12--12--12--12--12--12--12--12--12--12--12--12--12--12--12--12--|
|o-13--13--13------13--13--13------13--13--13------13--13--13------|
|--14--14----------14--14----------14--14----------14--14----------|
|--14--14----------------------------------------------------------|
|o-----------------------------------------------------------------|
|------------------------------------------------------------------|
|Mandolin 3
|------------------------------------------------------------------|
|o-----------------------------------------------------------------|
|------------------------------------------------------------------|
|--14--14----------------------------------------------------------|
|o-----------------------------------------------------------------|
|------------------------------------------------------------------|


|12--12--12--12--12--12--12--12--12--12--12--12--12--12--12--|
|13--13--13------13--13--13------13--13--13--13--13--13------|
|14--14----------14--14----------14--14------14--14----------|
|14--14------------------------------------------------------|
|------------------------------------------------------------|
|------------------------------------------------------------|
|
|------------------------------------------------------------|
|------------------------------------------------------------|
|------------------------------------------------------------|
|13--13------------------------------------------------------|
|------------------------------------------------------------|
|------------------------------------------------------------|


|12--12--12--12--12--12--12--12--12--12--12--12--12--12--12--|
|13--13--13------13--13--13------13--13--13--13--13--13------|
|14--14----------14--14----------14--14------14--14----------|
|14--14------------------------------------------------------|
|------------------------------------------------------------|
|------------------------------------------------------------|
|
|------------------------------------------------------------|
|------------------------------------------------------------|
|------------------------------------------------------------|
|12--12------------------------------------------------------|
|------------------------------------------------------------|
|------------------------------------------------------------|


|12--12--12--12--12--12--12--12--12--12--12--12--12--12--12---|
|13--13--13------13--13--13------13--13--13--13--13--13------o|
|14--14----------14--14----------14--14------14--14-----------|
|14--14-------------------------------------------------------|
|------------------------------------------------------------o|
|-------------------------------------------------------------|
|
|-------------------------------------------------------------|
|------------------------------------------------------------o|
|-------------------------------------------------------------|
|13--13-------------------------------------------------------|
|------------------------------------------------------------o|
|-------------------------------------------------------------|


Mandolins 1, 2, and 3
|--------12-(12)-12--12-(12)-12--12--12--12-(12)-12--12-(12)-(12)-12--12--12-(12)-12--12-(12)-|
|13--13--13-(13)-10--12-(12)-13--13--13--13-(13)-10--12-(12)-(12)-13--13--13-(13)-12--12-(12)-|
|------------*--------------------------------------------------------------------------------|
|14--14--14-(14)-12--12-(12)-14--14--14--14-(14)-12--12-(12)-(12)-14--14--14-(14)-12--12-(12)-|
|----------------------------10--10-------------------------------10--10--10-(10)-------------|
|---------------------------------------------------------------------------------------------|
*All the notes in () are Tape echo's.  They're there incase you don't have echo/delay.


|(12)-12--12--12--12--12--12-(12)-|
|(12)-13--13--13--13--10--12-(12)-|
|---------------------------------|
|(12)-14--14--14--14--14--12-(12)-|
|---------------------------------|
|---------------------------------|
                (Male voice:) The


Verse:
Mandolins 1, 2, and 3
Mandolin Figure 1
|14--14--12--14-(14)-12--15-(15)-14--14--12--14-(14)-12----------14--14--12--14-(14)-12--15-(15)-|
|10--10--10--10-(10)-10--12-(12)-10--10--10--10-(10)-10--13-(13)-10--10--10--10-(10)-10--12-(12)-|
|14--14--14--14-(14)-14----------14--14--14--14-(14)-14--14-(14)-14--14--14--14-(14)-14----------|
|14--14--12--14-(14)-12--12-(12)-14--14--12--14-(14)-12--10-(10)-14--14--12--14-(14)-12--12-(12)-|
|------------------------------------------------------------------------------------------------|
|------------------------------------------------------------------------------------------------|
|Queen__ of  Light____          took her     bow__  and  then    she turned__ to  go,_
|Guitars 1 and 2
|0------0--0-------------0------0--0----0--0--0--0------0--0-------------|
|0------0--0----3--3--3--0------0--0----1--1--1--0------0--0----3--3--3--|
|0--2h--2--2----0--0--0--0--2h--2--2----0--0--0--0--2h--2--2----0--0--0--|
|0--2h--2--2----0--0--0--0--2h--2--2----2--2--2--0--2h--2--2----0--0--0--|
|0------0--0----2--2--2--0------0--0----3--3--3--0------0--0----2--2--2--|
|------------------------------------------------------------------------|
The Different parts are played at the same time but arn't shown that way.


|14--14--12--14-(14)-12----------14--14--12--14-(14)-12--15-(15)-14--14--12--14-(14)-12----------|
|10--10--10--10-(10)-10--13-(13)-10--10--10--10-(10)-10--12-(12)-10--10--10--10-(10)-10--13-(13)-|
|14--14--14--14-(14)-14--14-(14)-14--14--14--14-(14)-14----------14--14--14--14-(14)-14--14-(14)-|
|14--14--12--14-(14)-12--10-(10)-14--14--12--14-(14)-12--12-(12)-14--14--12--14-(14)-12--10-(10)-|
|------------------------------------------------------------------------------------------------|
|------------------------------------------------------------------------------------------------|
|___                        the Prince   of  Peace_ em - braced  the gloom_ and
|0------0--0----0--0--0--0------0--0-------------0------0--0--0--0--0--|
|0------0--0----1--1--1--0------0--0----3--3--3--0------0--0--1--1--1--|
|0--2h--2--2----0--0--0--0--2h--2--2----0--0--0--0--2h--2--2--0--0--0--|
|0--2h--2--2----2--2--2--0--2h--2--2----0--0--0--0--2h--2--2--2--2--2--|
|0------0--0----3--3--3--0------0--0----2--2--2--0------0--0--3--3--3--|
|----------------------------------------------------------------------|


|14--14--12--14-(14)-12--15-(15)-14--14--12--14-(14)-12----------|
|10--10--10--10-(10)-10--12-(12)-10--10--10--10-(10)-10--13-(13)-|
|14--14--14--14-(14)-14----------14--14--14--14-(14)-14--14-(14)-|
|14--14--12--14-(14)-12--12-(12)-14--14--12--14-(14)-12--10-(10)-|
|----------------------------------------------------------------|
|----------------------------------------------------------------|
|walked  the night_      a- lone.________________________________
|0------0--0-------------0------0--0----0--0--0--|
|0------0--0----3--3--3--0------0--0----1--1--1--|
|0--2h--2--2----0--0--0--0--2h--2--2----0--0--0--|
|0--2h--2--2----0--0--0--0--2h--2--2----2--2--2--|
|0------0--0----2--2--2--0------0--0----3--3--3--|
|------------------------------------------------|


(Female Voice:)
Oh,________________________
Mandolin 1:
|-----17-(17)------17-(17)-|
|-----15-(15)------15-(15)-|
|-----14-(14)------14-(14)-|
|-----12-(12)------12-(12)-|
|--------------------------|
|--------------------------|
|__
|2------------2------------|
|3------------3------------|
|2------------2------------|
|0------------0------------|
|--------------------------|
|--------------------------|


dance in the dark of night___________________           sing to  the morn        -
Mandolin 2
*- - - - - - - - - - - - - - - - - -|
|--15-14--12--14--15--14--12---------17-(17)------17-(17)----15--14----------------------|
|-----15--------------15------17-----15-(15)------15-(15)------------17----------17--17--|
|-----14--------------14-------------14-(14)------14-(14)----------------17--17----------|
|-----12--------------12-------------12-(12)------12-(12)--------------------------------|
|----------------------------------------------------------------------------------------|
|----------------------------------------------------------------------------------------|
|                                                       (Male Voice:)  The
|2------------2---------------2--------------2------------2--------------2---------------|
|3------------3---------------3--------------3------------3--------------3---------------|
|2------------2---------------2--------------2------------2--------------2---------------|
|0------------0---------------0--------------0------------0--------------0---------------|
|----------------------------------------------------------------------------------------|
|----------------------------------------------------------------------------------------|
*This part is optional and omitted from here on. (Mandolin 2's part only)


         ing    light.
|14-(14)-12--14-(14)-12--15-(15)-14-(14)-12--14-(14)-12----------14-(14)-12--14-(14)-12--15-(15)-|
|10-(10)-10--10-(10)-10--10-(10)-10-(10)-10--10-(10)-10--13-(13)-10-(10)-10--10-(10)-10--10-(10)-|
|14-(14)-14--14-(14)-14--14-(14)-14-(14)-14--14-(14)-14--14-(14)-14-(14)-14--14-(14)-14--14-(14)-|
|------------------------------------------------------------------------------------------------|
|------------------------------------------------------------------------------------------------|
|------------------------------------------------------------------------------------------------|
|dark    Lord   rides    in force_       to - night          and time will tell_  us all._
|0--(0)--0--(0)--0---0---3--(3)--0-------0---0-------0---0---0---0--(0)--0--(0)--0---0---3--(3)--|
|0--(0)--0--(0)--0---0---3--(3)--0-------0---0-------1---1---1---0--(0)--0--(0)--0---0---3--(3)--|
|2--(2)--2--(2)--2---2---0--(0)--0--2h---2---2-------0---0---0---2--(2)--2--(2)--2---2---0--(0)--|
|2--(2)--2--(2)--2---2---0--(0)--0--2h---2---2-------2---2---2---2--(2)--2--(2)--2---2---0--(0)--|
|0--(0)--0--(0)--0---0---2--(2)--0-------0---0-------3---3---3---0--(0)--0--(0)--0---0---2--(2)--|
|------------------------------------------------------------------------------------------------|


                             Oh,_____                    throw down your plow__        and
|14-(14)-12--14-(14)-12---------------17-(17)------17-(17)----15--14--------------14------|
|10-(10)-10--10-(10)-10--13-(13)------15-(15)------15-(15)------------17--15--17------17--|
|14-(14)-14--14-(14)-14--14-(14)------14-(14)------14-(14)--------------------------------|
|------------------------------------(12)(12)-----(12)(12)--------------------------------|
|-----------------------------------------------------------------------------------------|
|-----------------------------------------------------------------------------------------|
|______________________
|0-------0---0-------0---0---0---2------------2------------2--------------2---------------|
|0-------0---0-------1---1---1---3------------3------------3--------------3---------------|
|0--2h---2---2-------0---0---0---2------------2------------2--------------2---------------|
|0--2h---2---2-------2---2---2---0------------0------------0--------------0---------------|
|0-------0---0-------3---3---3------------------------------------------------------------|
|-----------------------------------------------------------------------------------------|


hoe,_____________         rest not to lock__ your      homes.__
|------17-(17)------17-(17)----15--14----------------------14-(14)-12--14-(14)-12--15-(15)-|
|17----15-(15)------15-(15)------------17----------17--17--10-(10)-10--10-(10)-10--10-(10)-|
|------14-(14)------14-(14)----------------17--17----------14-(14)-14--14-(14)-14--14-(14)-|
|-----(12)(12)-----(12)(12)----------------------------------------------------------------|
|------------------------------------------------------------------------------------------|
|------------------------------------------------------------------------------------------|
|                                                          Side   by  side__  we
|2-------------2------------2--------------2---------------0--(0)--0--(0)--0---0---3--(3)--|
|3-------------3------------3--------------3---------------0--(0)--0--(0)--0---0---3--(3)--|
|2-------------2------------2--------------2---------------2--(2)--2--(2)--2---2---0--(0)--|
|0-------------0------------0--------------0---------------2--(2)--2--(2)--2---2---0--(0)--|
|----------------------------------------------------------0--(0)--0--(0)--0---0---2--(2)--|
|------------------------------------------------------------------------------------------|


                                                                                 Oh,_____________
|14-(14)-12--14-(14)-12----------14-(14)-12--14-(14)-12--15-(15)-14-(14)-12--14-(14)-12----------|
|10-(10)-10--10-(10)-10--13-(13)-10-(10)-10--10-(10)-10--10-(10)-10-(10)-10--10-(10)-10--13--13--|
|14-(14)-14--14-(14)-14--14-(14)-14-(14)-14--14-(14)-14--14-(14)-14-(14)-14--14-(14)-14--14--14--|
|------------------------------------------------------------------------------------------------|
|------------------------------------------------------------------------------------------------|
|------------------------------------------------------------------------------------------------|
|wait    the might__       of the dark - est of___ them all.________________________________
|0-------0---0-------0---0---0---0--(0)--0--(0)--0---0---3--(3)--0-------0---0-------0---0---0---|
|0-------0---0-------1---1---1---0--(0)--0--(0)--0---0---3--(3)--0-------0---0-------1---1---1---|
|0--2h---2---2-------0---0---0---2--(2)--2--(2)--2---2---0--(0)--0--2h---2---2-------0---0---0---|
|0--2h---2---2-------2---2---2---2--(2)--2--(2)--2---2---0--(0)--0--2h---2---2-------2---2---2---|
|0-------0---0-------3---3---3---0--(0)--0--(0)--0---0---2--(2)--0-------0---0-------3---3---3---|
|------------------------------------------------------------------------------------------------|


_____________________________________________________________________________________
|-----17--17-------17--17-----15--14------15--14---------12--12------14--12----------|
|-----15--15-------15--15-------------17----------17-----13--12--------------13--13--|
|-----14--14-------14--14----------------------------------------14------------------|
|-----12--12-------12--12------------------------------------------------------------|
|------------------------------------------------------------------------------------|
|------------------------------------------------------------------------------------|
|______________________________________________________     *Ah,________
|2------------2------------2--------------2-----------2--------------2---------------|
|3------------3------------3--------------3-----------3--------------3---------------|
|2------------2------------2--------------2-----------2--------------2---------------|
|0------------0------------0--------------0-----------0--------------0---------------|
|------------------------------------------------------------------------------------|
|------------------------------------------------------------------------------------|
*Female voice replaces male voice.


_________________________________
|----17--15--14--12--12--12--12--|
|----------------10--10--10--10--|
|14--------------14--14--14--14--|
|--------------------------------|
|--------------------------------|
|--------------------------------|
|________________________________
|2---------------2---------------|
|3---------------3---------------|
|2---------------2---------------|
|0---------------0-----------2---|
|----------------------------0---|
|--------------------------------|


____________________________________
|14-(14)-12--14-(14)-12--15-(15)-14-(12)-12--14-(14)-12----------14-(14)-12--14-(14)-12--15-(15)-|
|10-(10)-10--10-(10)-10--10-(10)-10-(10)-10--10-(10)-10--13-(13)-10-(10)-10--10-(10)-10--10-(10)-|
|14-(14)-14--14-(14)-14--14-(14)-14-(14)-14--14-(14)-14--14-(14)-14-(14)-14--14-(14)-14--14-(14)-|
|------------------------------------------------------------------------------------------------|
|------------------------------------------------------------------------------------------------|
|------------------------------------------------------------------------------------------------|
|*Bring      it,                bring       it,               bring   it.
|0-------0---0-------------------0---0---0---0-------0---0---0---0---0---0---0-------3---3---3---|
|0-------0---0-------3---3--(3)--0---0---0---0-------1---1---1---0---0---0---0-------3---3---3---|
|0--2h---2---2-------0---0--(0)--2---2---2---2-------0---0---0---2---2---2---2-------0---0---0---|
|0--2h---2---2-------0---0--(0)--2---2---2---2-------2---2---2---2---2---2---2-------0---0---0---|
|0-------0---0-------2---2--(2)--0---0---0---0-------3---3---3---0---0---0---0-------2---2---2---|
|------------------------------------------------------------------------------------------------|
*Distant Male Chorus.


|14-(12)-12--14-(14)-12----------|
|10-(10)-10--10-(10)-10--13-(13)-|
|14-(14)-14--14-(14)-14--14-(14)-|
|--------------------------------|
|--------------------------------|
|--------------------------------|
|
|0------(0)--0---0--(0)--0--(0)--|
|0------(0)--0---0--(0)--1--(1)--|
|0--2h--(2)--2---2--(2)--0--(0)--|
|0--2h--(2)--2---2--(2)--2--(2)--|
|0------(0)--0---0--(0)--3--(3)--|
|--------------------------------|


Choral Verse:
|12--12--12--12--12--12--15--12--10--17--17--17-(17)-17--17-(17)-|
|--------------------------------10--10--10--10-(10)-10--10-(10)-|
|12--12--12--12--12--12--12--12--11--11--11--11-(11)-11--11-(11)-|
|10--10--10--10--10--10--10--10--10-(10)(10)(10)(10)(10)(10)(10)-|
|10--10--10--10--10--10--10--10----------------------------------|
|----------------------------------------------------------------|
|        I   hear__             hors -  es  thun -  der
|------------------------3---3---2---2--(2)--2--(2)--2---2--(2)--|
|------------1--(1)--1---1---1---3---3--(3)--3--(3)--3---3--(3)--|
|--------2---2--(2)--2---0---0---2---2--(2)--2--(2)--2---2--(2)--|
|--------2---2--(2)--2---2---2---0---0--(0)--0--(0)--0---0--(0)--|
|--------0---------------0---0-----------------------------------|
|----------------------------------------------------------------|


|12--12--12--12--12--12--12--12------17--17--17-(17)-17--17--12--12--15--15--15--15--15--15-(15)-|
|--------------------------------10--10--10--10-(10)-10--10--10----------------------------------|
|11--12--12--12--12--12--12--12--11--11--11--11-(11)-11--11--11--12--12--12--12--12--12--12-(12)-|
|10--10--10--10--10--10--10--10--12--12--12--12-(12)-12--12--12----------------------------------|
|--------------------------------------------10-(10)-10--10-(10)(14)-14--14--14--14--14--14-(14)-|
|------------------------------------------------------------------------------------------------|
|down     in the val-ly  be- low,__                   I'm wait   -   in'  for the
|----3--(3---3)------3--(3---3)--2---2--(2)--2--(2)--2---2--(2)------1---1---1--(1)--1---1--(1)--|
|----1--(1---1)------1--(1---1)--3---3--(3)--3--(3)--3---3--(3)------0---0---0--(0)--0---0--(0)--|
|2---2--(2---2)--2---2--(2---2)--2---2--(2)--2--(2)--2---2--(2)------0---0---0--(0)--0---0--(0)--|
|2---------------2---------------0---0--(0)--0--(0)--0---0--(0)----------------------------------|
|0---------------0---------------------------------------------------2---2---2--(2)--2---2--(2)--|
|------------------------------------------------------------------------------------------------|


                                                                            End Mandolin 
1
|15--12--12--12------12--12-(12)---------------------------------15--12--12--12------12--12-(12)-|
|--------------------------------17--20--20--20--20--20--20--20----------------------------------|
|12--12--12--12------12--12-(12)-10--10--10--10--10--10--10--10--12--12--12--12------12--12-(12)-|
|10--10--10--10------10--10-(10)-17--17--17--17--17--17--17--17--10--10--10--10------10--10-(10)-|
|--------10--10------10--10-(10)-10--10--10--10--10--10--10--10--10-(10)-10--10------10--10-(10)-|
|------------------------------------------------------------------------------------------------|
|an  -  gels of  Av  - a - lon,  wait - in' fro the east - ern   glow.          The
|0---0---0---0---0---0---0---0-------1---1---1---1---1---1---1---0---0---0--(0---0)--0---0--(0)--|
|1---1---1---1---1---1---1---1-------0---0---0---0---0---0---0---1---1---1--(1---1)--1---1--(1)--|
|0---0---0---0---0---0---0---0-------0---0---0---0---0---0---0---0---0---0--(0---0)--0---0--(0)--|
|--------------------------------0---0---0---0---0---0---0---0---2---2---2--(2---2)--2---2--(2)--|
|3---3---3---3---3---3---3---3-----------------------------------3---3---3--(3---3)--3---3--(3)--|


Verse:With Mandolin Figure 1 with ad lib variations.
*Guitars 1 and 2
|0------0--0------------0------0--0----0--0----0------0--0------------|
|0------0--0----3--3----0------0--0----1--1----0------0--0----3--3----|
|0--2h--2--2----0--0----0--2h--2--2----0--0----0--2h--2--2----0--0----|
|0--2h--2--2----0--0----0--2h--2--2----2--2----0--2h--2--2----0--0----|
|0------0--0----2--2----0------0--0----3--3----0------0--0----2--2----|
|---------------------------------------------------------------------|
ap -plees  of      the val - ley hold_         the seeds of hap-pi-nes,_

*From here on the Guitar arrangement is notated without the tape echo rhythms
 and any other () notes are used as in the key.


|0------0--0----0--0----0------0--0------------0------0--0----0--0----|
|0------0--0----1--1----0------0--0----3--3----0------0--0----1--1----|
|0--2h--2--2----0--0----0--2h--2--2----0--0----0--2h--2--2----0--0----|
|0--2h--2--2----2--2----0--2h--2--2----0--0----0--2h--2--2----2--2----|
|0------0--0----3--3----0------0--0----2--2----0------0--0----3--3----|
|---------------------------------------------------------------------|
____             (the) ground is rich___   from ten - der care,__   re-


              (Female Voice:)  Oh,_______________
|0------0--0------------0------0--0----0--0--------2------2--2----|
|0------0--0----3--3----0------0--0----1--1--------3------3--3----|
|0--2h--2--2----0--0----0--2h--2--2----0--0--------2------2--2----|
|0--2h--2--2----0--0----0--2h--2--2----2--2--------0------0--0----|
|0------0--0----2--2----0------0--0----3--3-----------------------|
|-----------------------------------------------------------------|
pay     do not__  for-get.___       No,        no.


dance in the dark night,____________________          sing to the moon - light.___
|--------2--------------2--2--2-------2--2----2--2------------2-------2--2--2-----|
|--------3--------------3--3--3--3----3--3----3--3------------3-------3--3--3-----|
|--------2--------------2--2--2--2----2--2----2--2------------2-------2--2--2-----|
|--------0--------------0--0--0--0----0--0----0--0------------0-------0--0--0-----|
|---------------------------------------------------------------------------------|
|---------------------------------------------------------------------------------|
                                                                             (The)


____
|0------0--0----3--3----0------0--0----0--0----0------0--0----3--3----|
|0------0--0----3--3----0------0--0----1--1----0------0--0----3--3----|
|0--2h--2--2----0--0----0--2h--2--2----0--0----0--2h--2--2----0--0----|
|0--2h--2--2----0--0----0--2h--2--2----2--2----0--2h--2--2----0--0----|
|0------0--0----2--2----0------0--0----3--3----0------0--0----2--2----|
|---------------------------------------------------------------------|
ap - ples turn,_  to brown  and black,_ the ty - rants face_____    is


                        Oh,              war is the com-mon cry,_
|0------0--0----0--0---------2------2--2--------2------2--2--2--|
|0------0--0----1--1---------3------3--3--------3------3--3--3--|
|0--2h--2--2----0--0----2----2------2--2--------2------2--2--2--|
|0--2h--2--2----2--2----0----0------0--0--------0------0--0--0--|
|0------0--0----3--3--------------------------------------------|
|---------------------------------------------------------------|
red.______________________             Oh,___   now.


___                  pick up your swords and fly.___________________
|2----2------2--2--2----2--2--2--2--2--2----0------0--0----3--3--3--|
|3----3------3--3--3----3--3--3--3--3--3----0------0--0----3--3--3--|
|2----2------2--2--2----2--2--2--2--2--2----0--2h--2--2----0--0--0--|
|0----0------0--0--0----0--0--0--0--0--0----0--2h--2--2----0--0--0--|
|-------------------------------------------0------0--0----2--2--2--|
|-------------------------------------------------------------------|
                                          The sky is filled__     with


____                                                        Oh,________
|0------0--0----0--0----0------0--0----3--3--3--0------0--0----0--0----|
|0------0--0----1--1----0------0--0----3--3--3--0------0--0----1--1----|
|0--2h--2--2----0--0----0--2h--2--2----0--0--0--0--2h--2--2----0--0----|
|0--2h--2--2----2--2----0--2h--2--2----0--0--0--0--2h--2--2----2--2----|
|0------0--0----3--3----0------0--0----2--2--2--0------0--0----3--3----|
|----------------------------------------------------------------------|
good and   bad,        mor-tals   nev  -  er know.______________________


_______________________                     Ah,__________________
|-----2------2--2--2----2--2--2----2--2--2-------2--2----2--2--2----2--2--2----2--2----|
|-----3------3--3--3----3--3--3----3--3--3-------3--3----3--3--3----3--3--3----3--3----|
|2----2------2--2--2----2--2--2----2--2--2--2----2--2----2--2--2----2--2--2----2--2----|
|0----0------0--0--0----0--0--0----0--0--0--0----0--0----0--0--0----0--0--0----0--0----|
|--------------------------------------------------------------------------------------|
|--------------------------------------------------------------------------------------|
___       Now.__________   Oh____________________________________________________


____________________________________________________
|0------0--0----3--3--3--0------0--0----0--0----0------0--0----3--3-3-3--0------0--0----0--0----|
|0------0--0----3--3--3--0------0--0----1--1----0------0--0----3--3-3-3--0------0--0----1--1----|
|0--2h--2--2----0--0--0--0--2h--2--2----0--0----0--2h--2--2----0--0-0-0--0--2h--2--2----0--0----|
|0--2h--2--2----0--0--0--0--2h--2--2----2--2----0--2h--2--2----0--0-0-0--0--2h--2--2----2--2----|
|0------0--0----2--2--2--0------0--0----3--3----0------0--0----2--2-2-2--0------0--0----3--3----|
|-----------------------------------------------------------------------------------------------|
____________________________________________________


Choral Verse:
|--3----3----3--3------2----2----2--2----3----3--3----3--3----|
|--1----1----1--1------3----3----3--3----1----1--1----1--1----|
|--0----0----0--0------2----2----2--2----0----0--0----0--0----|
|--2----2----2--2------0----0----0--0----2----2--2----2--2----|
|--0----0----0--0------------------------0----0--0----0--0----|
|-------------------------------------------------------------|
     Oh well_   the night_ is long,__   beads of time_ pass slow,__


|2----2--2----2--2--2--1--1--1--1----1--1----0--0--0--0----0--0----|
|3----3--3----3--3--3--0--0--0--0----0--0----1--1--1--1----1--1----|
|2----2--2----2--2--2--0--0--0--0----0--0----0--0--0--0----0--0----|
|0----0--0----0--0--0--0--0--0--0----0--0----2--2--2--2----2--2----|
|----------------------2--2--2--2----2--2----3--3--3--3----3--3----|
|-------------------------3--3--3----3--3--------------------------|
____                     tired eyes_ on the sun - rise,______


|1--1--1--1----1--1----0--0--0--0----0--0----|
|0--0--0--0----0--0----1--1--1--1----1--1----|
|0--0--0--0----0--0----0--0--0--0----0--0----|
|0--0--0--0----0--0----2--2--2--2----2--2----|
|2--2--2--2----2--2----3--3--3--3----3--3----|
|---3--3--3----3--3--------------------------|
wait-in' for the east - ern glow.          The


Verse: with Mandolin Figure 1:
|0------0--0----3--3----0------0--0----3--3----0------0--0----3--3----0------0--0----3--3----|
|0------0--0----3--3----0------0--0----1--1----0------0--0----3--3----0------0--0----1--1----|
|0--2h--2--2----0--0----0--2h--2--2----0--0----0--2h--2--2----0--0----0--2h--2--2----0--0----|
|0--2h--2--2----0--0----0--2h--2--2----2--2----0--2h--2--2----0--0----0--2h--2--2----2--2----|
|0------0--0----2--2----0------0--0----3--3----0------0--0----2--2----0------0--0----3--3----|
|--------------------------------------------------------------------------------------------|
pain of war___       can not ex - ceed__  the woe of af - ter math,__         the


                                                                                  Oh,________
|0------0--0----3--3----0------0--0----3--3----0------0--0----3--3----0------0--0----3--3----|
|0------0--0----3--3----0------0--0----1--1----0------0--0----3--3----0------0--0----1--1----|
|0--2h--2--2----0--0----0--2h--2--2----0--0----0--2h--2--2----0--0----0--2h--2--2----0--0----|
|0--2h--2--2----0--0----0--2h--2--2----2--2----0--2h--2--2----0--0----0--2h--2--2----2--2----|
|0------0--0----2--2----0------0--0----3--3----0------0--0----2--2----0------0--0----3--3----|
|--------------------------------------------------------------------------------------------|
drums will shake_ the cas - tle wall__ the ring wraiths ride__ in black,____ride_______


Double Verse:
_____            sing as you raise your bow,__
|----2------2--2------2--2------2--2--2--|
|----3------3--3------3--3------3--3--3--|
|----2------2--2------2--2------2--2--2--|
|----0------0--0------0--0------0--0--0--|
|----------------------------------------|
|----------------------------------------|
____ on.______________             Ride__


___                shoot straight - er than be - fore.___________
|-----2------2--2------2--2------2--2--2--0------0--0----3--3----|
|-----3------3--3------3--3------3--3--3--0------0--0----3--3----|
|2----2------2--2------2--2------2--2--2--0--2h--2--2----0--0----|
|0----0------0--0------0--0------0--0--0--0--2h--2--2----0--0----|
|-----------------------------------------0------0--0----2--2----|
|----------------------------------------------------------------|
on.                                    No com - fort has__    the


______________________________________________________________________
|0------0--0----3--3----0------0--0----3--3----0------0--0----3--3----|
|0------0--0----1--1----0------0--0----3--3----0------0--0----1--1----|
|0--2h--2--2----0--0----0--2h--2--2----0--0----0--2h--2--2----0--0----|
|0--2h--2--2----2--2----0--2h--2--2----0--0----0--2h--2--2----2--2----|
|0------0--0----3--3----0------0--0----2--2----0------0--0----3--3----|
|---------------------------------------------------------------------|
fire  at night__ that lights the fire__ so cold.____________________


___              Dance in the dark__   night,___
|----2------2--2------2--2------2--2--2-------2------2--2----|
|----3------3--3------3--3------3--3--3-------3------3--3----|
|----2------2--2------2--2------2--2--2--2----2------2--2----|
|----0------0--0------0--0------0--0--0--0----0------0--0----|
|------------------------------------------------------------|
|------------------------------------------------------------|
____                                                      The


sing to the morn - in' light._______________________________________
|--2--2------2--2--2--0------0--0----3--3----0------0--0----3--3----|
|--3--3------3--3--3--0------0--0----3--3----0------0--0----1--1----|
|--2--2------2--2--2--0--2h--2--2----0--0----0--2h--2--2----0--0----|
|--0--0------0--0--0--0--2h--2--2----0--0----0--2h--2--2----2--2----|
|---------------------0------0--0----2--2----0------0--0----3--3----|
|-------------------------------------------------------------------|
                      magic runes__       are writ in  gold__    to


____
|0------0--0----3--3----0------0--0----3--3--------2------2--2------2--2------2--2--2--|
|0------0--0----3--3----0------0--0----1--1--------3------3--3------3--3------3--3--3--|
|0--2h--2--2----0--0----0--2h--2--2----0--0--------2------2--2------2--2------2--2--2--|
|0--2h--2--2----0--0----0--2h--2--2----2--2--------0------0--0------0--0------0--0--0--|
|0------0--0----2--2----0------0--0----3--3--------------------------------------------|
|--------------------------------------------------------------------------------------|
birng  the bal - ance   back.______ Bring it back.___

[ Tab from: http://www.guitartabs.cc/tabs/l/led_zeppelin/the_battle_of_evermore_tab_ver_2.html ]
|-----2------2--2------2--2------2--2--2--0------0--0----3--3----|
|-----3------3--3------3--3------3--3--3--0------0--0----3--3----|
|2----2------2--2------2--2------2--2--2--0--2h--2--2----0--0----|
|0----0------0--0------0--0------0--0--0--0--2h--2--2----0--0----|
|-----------------------------------------0------0--0----2--2----|
|----------------------------------------------------------------|


|0------0--0----3--3----0------0--0----3--3----0------0--0----3--3----|
|0------0--0----1--1----0------0--0----3--3----0------0--0----1--1----|
|0--2h--2--2----0--0----0--2h--2--2----0--0----0--2h--2--2----0--0----|
|0--2h--2--2----2--2----0--2h--2--2----0--0----0--2h--2--2----2--2----|
|0------0--0----3--3----0------0--0----2--2----0------0--0----3--3----|
|---------------------------------------------------------------------|


Choral Verse:
|----3----3----3--3------2----2----2--2----|
|----1----1----1--1------3----3----3--3----|
|----0----0----0--0------2----2----2--2----|
|----2----2----2--2------0----0----0--0----|
|----0----0----0--0------------------------|
|------------------------------------------|
       At last,_    the sun_ is shinin'_ the_


|3----3--3----3--3----2----2--2----2--2--2--|
|1----1--1----1--1----3----3--3----3--3--3--|
|0----0--0----0--0----2----2--2----2--2--2--|
|2----2--2----2--2----0----0--0----0--0--0--|
|0----0--0----0--0--------------------------|
|-------------------------------------------|
clouds of blue roll by.__


|1--1--1--1----1--1----0--0--0--0----0--0----|
|0--0--0--0----0--0----1--1--1--1----1--1----|
|0--0--0--0----0--0----0--0--0--0----0--0----|
|0--0--0--0----0--0----2--2--2--2----2--2----|
|2--2--2--2----2--2----3--3--3--3----3--3----|
|3--3--3--3----3--3--------------------------|
With flames__ from the dra-gon of dark-ness the


|1--1--1--1----1--1----0--0--0--0----0--0----|
|0--0--0--0----0--0----1--1--1--1----1--1----|
|0--0--0--0----0--0----0--0--0--0----0--0----|
|0--0--0--0----0--0----2--2--2--2----2--2----|
|2--2--2--2----2--2----3--3--3--3----3--3----|
|3--3--3--3----3--3--------------------------|
sun - light it blinds his eyes.______________


Bridge:
Mandolins 1 and 2
|----12--12----------12--12----------12--12----------12--12----------12--12----------12--12------|
|13--13--13--13--13--13--13--13--13--13--13--13--13--13--13--13--13--13--13--13--13--13--13--13--|
|14----------14--14----------14--14----------14--14----------14--14----------14--14----------14--|
|------------------------------------------------------------------------------------------------|
|------------------------------------------------------------------------------------------------|
|------------------------------------------------------------------------------------------------|
|________________________________________________________________________________________________
|                   (Male Voice) Ah,______________________________________________________
|Mandolin 3
|------------------------------------------------------------------------------------------------|
|------------------------------------------------------------------------------------------------|
|------------------------------------------------------------------------------------------------|
|------------------------------------------------------------14----------------------------------|
|------------------------------------------------------------------------------------------------|
|------------------------------------------------------------------------------------------------|
|Finger Picked Guitar
|------------------------------------------------------------------------------------------------|
|--------------------0---------------0---------------0---------------0---------------0-----------|
|------------------------2---------------2---------------2---------------2-----------------------|
|----------------2---------------2---------------2---------------2---------------2-------2-------|
|------------0---------------0---------------0---------------0---------------0-------------------|
|------------------------------------------------------------------------------------------------|


___________________________________________________________________
|----12--12----------12--12----------12--12----------12--12----------12--12----------12--12------|
|13--13--13--13--13--13--13--13--13--13--13--13--13--13--13--13--13--13--13--13--13--13--13--13--|
|14----------14--14----------14--14----------14--14----------14--14----------14--14----------14--|
|------------------------------------------------------------------------------------------------|
|------------------------------------------------------------------------------------------------|
|------------------------------------------------------------------------------------------------|
|___                                                                         Ah,________
|------------------------------------------------------------------------------------------------|
|------------------------------------------------------------------------------------------------|
|------------------------------------------------------------------------------------------------|
|----------------------------12------------------------------------------------------------------|
|------------------------------------------------------------------------------------------------|
|------------------------------------------------------------------------------------------------|
|
|------------------------------------------------------------------------------------------------|
|--------0---------------0---------------0---------------0---------------0---------------0-------|
|------------2---------------2---------------2---------------2---------------2---------------2---|
|----2---------------2---------------2---------------2---------------2---------------2-----------|
|0---------------0---------------0---------------0---------------0---------------0---------------|
|------------------------------------------------------------------------------------------------|

|----12--12----------12--12----------12--12----------12--12----------12--12----------12--12------|
|13--13--13--13--13--13--13--13--13--13--13--13--13--13--13--13--13--13--13--13--13--13--13--13--|
|14----------14--14----------14--14----------14--14----------14--14----------14--14----------14--|
|------------------------------------------------------------------------------------------------|
|------------------------------------------------------------------------------------------------|
|------------------------------------------------------------------------------------------------|
|____             Ooh,_____________      Ooh,_____________Ah,____________________________
|------------------------------------------------------------------------------------------------|
|------------------------------------------------------------------------------------------------|
|------------------------------------------------------------------------------------------------|
|13--------------------------------------------------------------14------------------------------|
|------------------------------------------------------------------------------------------------|
|------------------------------------------------------------------------------------------------|
|
|------------------------------------------------------------------------------------------------|
|--------0---------------0---------------0---------------0---------------0---------------0-------|
|------------2---------------2---------------2---------------2---------------2---------------2---|
|----2---------------2---------------2---------------2---------------2---------------2-----------|
|0---------------0---------------0---------------0---------------0---------------0---------------|
|------------------------------------------------------------------------------------------------|


|----12--12----------12--12----------12--12----------12--12----------12--12----------12--12------|
|13--13--13--13--13--13--13--13--13--13--13--13--13--13--13--13--13--13--13--13--13--13--13--13--|
|14----------14--14----------14--14----------14--14----------14--14----------14--14----------14--|
|------------------------------------------------------------------------------------------------|
|------------------------------------------------------------------------------------------------|
|------------------------------------------------------------------------------------------------|
|________________________________________________________________________________________________
|------------------------------------------------------------------------------------------------|
|------------------------------------------------------------------------------------------------|
|------------------------------------------------------------------------------------------------|
|--------------------------------13--------------------------------------------------------------|
|------------------------------------------------------------------------------------------------|
|------------------------------------------------------------------------------------------------|
|
|------------------------------------------------------------------------------------------------|
|--------0---------------0---------------0---------------0---------------0---------------0-------|
|------------2---------------2---------------2---------------2---------------2---------------2---|
|----2---------------2---------------2---------------2---------------2---------------2-----------|
|0---------------0---------------0---------------0---------------0---------------0---------------|
|------------------------------------------------------------------------------------------------|


|----12--12----------12--12----------12--12----------12--12----------12--12----------12--12------|
|13--13--13--13--13--13--13--13--13--13--13--13--13--13--13--13--13--13--13--13--13--13--13--13--|
|14----------14--14----------14--14----------14--14----------14--14----------14--14----------14--|
|------------------------------------------------------------------------------------------------|
|------------------------------------------------------------------------------------------------|
|------------------------------------------------------------------------------------------------|
|________________________________________________________________________________________________
|------------------------------------------------------------------------------------------------|
|------------------------------------------------------------------------------------------------|
|------------------------------------------------------------------------------------------------|
|12--------------------------------------------------------------13------------------------------|
|------------------------------------------------------------------------------------------------|
|------------------------------------------------------------------------------------------------|
|
|------------------------------------------------------------------------------------------------|
|--------0---------------0---------------0---------------0---------------0---------------0-------|
|------------2---------------2---------------2---------------2---------------2---------------2---|
|----2---------------2---------------2---------------2---------------2---------------2-----------|
|0---------------0---------------0---------------0---------------0---------------0---------------|
|------------------------------------------------------------------------------------------------|


|----12--12----------12--12------|
|13--13--13--13--13--13--13--13--|
|14----------14--14----------14--|
|--------------------------------|
|--------------------------------|
|--------------------------------|
|
|--------------------------------|
|--------------------------------|
|--------------------------------|
|--------------------------------|
|--------------------------------|
|--------------------------------|
|
|--------------------------------|
|--------0---------------0-------|
|------------2---------------2---|
|----2---------------2-----------|
|0---------------0---------------|
|--------------------------------|


Mandolins 1 and 2
|--------12--12--12--12--12--12--12--12--12--12--12--12--12--12--|
|--------12--12--12--12--12--12--12--15------15--15--13--12--12--|
|----------------------------------------------------------------|
|x---x-----------------------------------------------------------|
|----------------------------------------------------------------|
|----------------------------------------------------------------|
|Ah,_____________________________________________________________
|Finger style Guitar*
|--------0-----------0---------------0---------------------------|
|--------0-----------0---------------0---------------------------|
|--------0-------------------0---------------0-----------0-------|
|2---------------2-----------2---2-----------2---2-------2-------|
|2---------------2---------------2---------------2---------------|
|0---------------0---------------0---------------0---------------|
*Play fingerstyle. The low notes are strummed with the thumb
 or pick and the high notes are plucked with the fingers.


|12--12--12--12--12--12--12--12--12--12--12--12--12--12--12--12--12--12--12--12--12--12--12--12--|
|15--15--15--15--15--15--15--13--12--12--12--12--12--12--12--15--13--13--13--12--12--12--12--15--|
|--------------------------------------------12--------------------------------------12--12------|
|------------------------------------------------------------------------------------------------|
|------------------------------------------------------------------------------------------------|
|------------------------------------------------------------------------------------------------|
|__________________________________
|--------0---------------------------0-----------------------------------------------------------|
|--------0---------------------------0-----------------------------------------------------------|
|--------0-------------------0---------------0---------------0---------------0---------------0---|
|2---------------2---2---2---2---2-----------2---2---2---2---2---2---2---2---2---2---2---2---2---|
|2---------------2---2---2-------2---------------2---2---2-------2---2---2-------2---2---2-------|
|0---------------0---0---0-------0---------------0---0---0-------0---0---0-------0---0---0-------|


|12--12--12--12--12--12--12--12--12--12--12--12--12--12--12--12--12--12--12--17--14--------------|
|13--13--13--12--12--12--12--15--15--13--13--12--12--12--12--12--13--13--12----------17--13------|
|--------------------12--12--------------------------12--12------------------14--14--14--14--14--|
|------------------------------------------------------------------------------------------------|
|------------------------------------------------------------------------------------------------|
|------------------------------------------------------------------------------------------------|
|                                                                                  Bring it
|------------------------------------------------------------------------------------------------|
|------------------------------------------------------------------------------------------------|
|------------0---------------0---------------0---------------0---------------0---------------0---|
|2---2---2---2---2---2---2---2---2---2---2---2---2---2---2---2---2---2---2---2---2---2---2---2---|
|2---2---2-------2---2---2-------2---2---2-------2---2---2-------2---2---2-------2---2---2-------|
|0---0---0-------0---0---0-------0---0---0-------0---0---0-------0---0---0-------0---0---0-------|


Refrain:
|14--12--12--14*---12--15--12--14--12--12--14----12------12--14--12--12--14----12--15--12--|
|10--10--13--10----10--12--10--10--10--10--10----10--13--10--10--10--13--10----10--12--10--|
|14--14--14--14----14------14--14--14--14--14----14--14--14--14--14--14--14----14------14--|
|------------14----12--12--12--14--12--12--12----12--14--12--------------14----12--12--12--|
|------------------------------------------------------------------------------------------|
|------------------------------------------------------------------------------------------|
|Back!         Bring it back!__             Bring it back!              Bring it back!_
|0-------0---0-----3---3-------0-------0---0-----------------0-------0---0-----3---3-------|
|0-------0---0-----3---3-------0-------0---0-----1---1-------0-------0---0-----3---3-------|
|0---2h--2---2-----0---0-------0---2h--2---2-----0---0-------0---2h--2---2-----0---0-------|
|0---2h--2---2-----0---0-------0---2h--2---2-----------------0---2h--2---2-----0---0-------|
|0-------0---0----(2)--2-------0-------0---0-----3---3-------0-------0---0----(2)--2-------|
|-----------------(3)--3------------------------------------------------------(3)--3-------|
Due to fingering difficulties, all notes on strings (4) and (5) are optional.


|14--12--12--14----12------12--14--12--12--14----12--15--12--14--12--12--14----12------12--|
|10--10--10--10----10--13--10--10--10--10--10----10--12--10--10--10--10--10----10--13--10--|
|14--14--14--14----14--14--14--14--14--14--14----14------14--14--14--14--14----14--14--14--|
|14--12--12--12----12--14--12--------------14----12--12--12--14--12--12--12----12--14--12--|
|------------------------------------------------------------------------------------------|
|------------------------------------------------------------------------------------------|
|___     Bring it back!___            Bring it back!___             Bring it back!__
|0-------0---0-----------------0-------0---0-----3---3-------0-------0---0-----------------|
|0-------0---0-----1---1-------0-------0---0-----3---3-------0-------0---0-----1---1-------|
|0---2h--2---2-----0---0-------0---2h--2---2-----0---0-------0---2h--2---2-----0---0-------|
|0---2h--2---2-----------------0---2h--2---2-----0---0-------0---2h--2---2-----------------|
|0-------0---0-----3---3-------0-------0---0----(2)--2-------0-------0---0-----3---3-------|
|-----------------------------------------------(3)--3-------------------------------------|


|14--12--12--14----12--15--12--14--12--12--14----12------12------17--17--17--17--17--17--17--|
|10--10--13--10----10--12--10--10--10--10--10----10--13--10--10--10--10--10--10--10--10--10--|
|14--14--14--14----14------14--14--14--14--14----14--14--14--14--14--14--14--14--14--14--14--|
|------------14----12--12--12--14--12--12--12----12--14--12-(12)-12--12--12--12--12--12--12--|
|--------------------------------------------------------------------------------------------|
|--------------------------------------------------------------------------------------------|
|___            Bring it back!___                              Oh     now,    oh
|0-------0---0-----3---3-------0-------0---0-----------------2---------------2---------------|
|0-------0---0-----3---3-------0-------0---0-----1---1-------3---------------3---------------|
|0---2h--2---2-----0---0-------0---2h--2---2-----0---0-------2---------------2---------------|
|0---2h--2---2-----0---0-------0---2h--2---2-----------------0---------------0---------------|
|0-------0---0----(2)--2-------0-------0---0-----3---3---------------------------------------|
|-----------------(3)--3---------------------------------------------------------------------|


|17--15--14--12--12--12--12--17--15--14--12--12------12--14--12------12--12--17----12--12--12--|
|10--10--10--10--13--13--13--10--10--10--13--13--13--13--13--13--13--13--13--------13--13--13--|
|14--14--14--14--------------14--14--14--14------14--------------14----------------14--14--14--|
|12--12--12------------------12--12--12-(12)---------------------------------------------------|
|----------------------------------------------------------------------------------------------|
|----------------------------------------------------------------------------------------------|
|now,    oh      now.___                 Oh    now,      oh      now, oh now.Bring it back!_
|2---------------2---2-----------2---------------2---------------2--------------2--------------|
|3---------------3---3-----------3---------------3---------------3--------------3--------------|
|2---------------2---2-----------2---------------2---------------2--------------2--------------|
|0---------------0---0-----------0---------------0---------------0--------------0--------------|
|----------------------------------------------------------------------------------------------|
|----------------------------------------------------------------------------------------------|


|14--14--12--14----12--15--12--14--14--12--14----12--12--12--|
|10--10--10--10----10--12--10--10--10--10--10----------------|
|14--14--14--14----14------14--14--14--14--14----16--16b-16--|
|-----------------------------(14)-14--14--14----14--14--14--|
|-----------------------------(10)-10------------------------|
|------------------------------------------------------------|
|__            Bring it back!__               Bring it back!_
|0-------0---0-----3---3-------0-------0---0-----------------|
|0-------0---0-----3---3-------0-------0---0-----1---1-------|
|0---2h--2---2-----0---0-------0---2h--2---2-----0---0-------|
|0---2h--2---2-----0---0-------0---2h--2---2-----------------|
|0-------0---0----(2)--2-------0-------0---0-----3---3-------|
|-----------------(3)--3-------------------------------------|


|14--12--12--14----12--15--12--14--12--12--14------12------------17--17--17--17----17--17--|
|10--10--10--10----10--12--10--10--10--10--10--10--10--13--13----10--10--10--10----10--10--|
|14--14--14--14----14------14--14--14--14--14--14--14--14--14---(14)-14--14--14----14--14--|
|14--14--14--14----12--12--12--14--14--14-(14)------------------(12)-12--12--12----12--12--|
|------------------10--10--10--10--10--10-(10)---------------------------------------------|
|------------------------------------------------------------------------------------------|
|___           Bring it back!__                                      Oh    now,    oh
|0-------0---0-----3---3-------0-------0---0-------------------2-------------2-------------|
|0-------0---0-----3---3-------0-------0---0-------1---1-------3-------------3-------------|
|0---2---2---2-----0---0-------0---2h--2---2-------0---0-------2-------------2-------------|
|0---2---2---2-----0---0-------0---2h--2---2-------------------0-------------0-------------|
|0-------0---0----(2)--2-------0-------0---0-------3---3-----------------------------------|
|-----------------(3)--3-------------------------------------------------------------------|


|17--15--14--12--12--17--15--14--12----------15----------------15------14----------------|
|10--10--10--10--10--10--10--10--10--13--12--10----13--12--10--10------10----13--12------|
|14--14--14--14--14--14--14--14--14----------14------------14--14------14----14--14--14--|
|12--12--12--12--12--12--12--12--12----------12----------------12------12----12--12-(12)-|
|----------------------------------------------------------------------------10--10-(10)-|
|----------------------------------------------------------------------------------------|
|now     oh      now     oh.             Oh      now   oh      now, oh  now. Bring it!
|2---------------2---------------2---2---2---2---------2---------------2---------2-------|
|3---------------3---------------3---3---3---3---------3---------------3---------3-------|
|2---------------2---------------2---2---2---2---------2---------------2---------2-------|
|0---------------0---------------0---0---0---0---------0---------------0---------0-------|
|----------------------------------------------------------------------------------------|
|----------------------------------------------------------------------------------------|


|-14--14--12--14----12--15--12--14--12----14----12----------|
|-10--10--10--10----10--10--10--10--10----10----10--13------|
|-14--14--14--14----14--14--14--14--14----14----14--14--14--|
|(14)-14--14--14----12--12--12--14--14----14----12-(14)-----|
|-------------10----10--10--10------------------10-(10)-----|
|-----------------------------------------------------------|
|   Bring it!    Bring it!  Bring it!  Bring it!_ Bring it!
|-0---0---0---0--0--0---0---0---0---0--0--0--0--0---0---0---|
|-0---0---0---0--0--0---0---0---0---0--0--0--0--0---0---0---|
|-2---2---2---2--2--2---2---2---2---2--2--2--2--2---2---2---|
|-2---2---2---2--2--2---2---2---2---2--2--2--2--2---2---2---|
|-0---0---0---0--0--0---0---0---0---0--0--0--0--0---0---0---|
|-----------------------------------------------------------|


|-14--14--12--14----12--15--12--14--12----14----12----------|
|-10--10--10--10----10--10--10--10--10----10----10--13------|
|-14--14--14--14----14--14--14--14--14----14----14--14--14--|
|(14)-14--14--14----12--12--12--14--14----14----12-(14)-----|
|-------------10----10--10--10------------------10-(10)-----|
|-----------------------------------------------------------|
|Bring it!   Bring it! Bring it!__ Bring it! Bring it! Bring
|-0---0---0---0--0--0---0---0---0---0--0--0--0--0---0---0---|
|-0---0---0---0--0--0---0---0---0---0--0--0--0--0---0---0---|
|-2---2---2---2--2--2---2---2---2---2--2--2--2--2---2---2---|
|-2---2---2---2--2--2---2---2---2---2--2--2--2--2---2---2---|
|-0---0---0---0--0--0---0---0---0---0--0--0--0--0---0---0---|
|-----------------------------------------------------------|


|-14--14--12--14----15--15--15--14--14----14----12----------14--14--12--14----15--15--15--|
|-10--10--10--10----10--10--10--10--10----10----10--13--13--10--10--10--10----10--10--10--|
|-14--14--14--14----14--14--14--14--14----14----14--14--14--14--14--14--14----14--14--14--|
|(14)-14--14--14----12--12--12--14--14----14----12--14--14-(14)-14--14--14----12--12-(12)-|
|(10)-10--10--10----10--10--10--10--10----10----10--10--10-(10)-10--10--10----10--10-(10)-|
|-----------------------------------------------------------------------------------------|
|it!___________________________________________________________
|-0-------0---0-----3---3-------0------0--0-----------------0-------0---0-----3---3-------|
|-0-------0---0-----3---3-------0------0--0-----1---1-------0-------0---0-----3---3-------|
|-0---2h--2---2-----0---0-------0---2h-2--2-----0---0-------0---2h--2---2-----0---0-------|
|-0---2h--2---2-----0---0-------0---2h-2--2-----------------0---2h--2---2-----0---0-------|
|-0-------0---0----(2)--2-------0------0--0-----3---3-------0-------0---0----(2)--2-------|
|------------------(3)--3----------------------------------------------------(3)--3-------|


|14--14----14----12----------14--14----14--15--15--15--14--12--14------------12--12--14--|
|10--10----10----10--13--13--10--10----10--10--10--10--10--10--10----13--13--10--10--10--|
|14--14----14----14--14--14--14--14----14--14--14--14--14--14--14----14--14--14--14-(14)-|
|14--14----14----12--14-(14)(14)-14----14--12--12--12--14--14--14----14--14--14--14-(14)-|
|10--10----10----10--10-(10)(10)-10----10--10--10--10--10--10--10------------------------|
|----------------------------------------------------------------------------------------|
|
|0------0--0------------0------0--0----3--3----0------0--0------------|
|0------0--0----1--1----0------0--0----3--3----0------0--0----1--1----|
|0--2h--2--2----0--0----0--2h--2--2----0--0----0--2h--2--2----0--0----|
|0--2h--2--2------------0--2h--2--2----0--0----0--2h--2--2------------|
|0------0--0----3--3----0------0--0---(2)-2----0------0--0----3--3----|
|-------------------------------------(3)-3---------------------------|
These 2 parts arn't going to be even but if you listen to it you should figure it out.


|-14--14----14--15--15--15--14--12--14------------12--12--14--|
|-10--10----10--10--10--10--10--10--10----13--13--10--10--10--|
|-14--14----14--14--14--14--14--14--14----14--14--14--14--14--|
|(14)-14----14--12--12--12--14--14--14----14--14--14--14--14--|
|(10)-10----10--10--10--10--10--10--10------------------------|
|-------------------------------------------------------------|
|
|0------0--0----3--3----0------0--0------------|
|0------0--0----3--3----0------0--0----1--1----|
|0--2h--2--2----0--0----0--2h--2--2----0--0----|
|0--2h--2--2----0--0----0--2h--2--2------------|
|0------0--0---(2)-2----0------0--0----3--3----|
|--------------(3)-3---------------------------|


|-14--14----14--15--15--15--14--12--14------------12--12--14--|
|-10--10----10--10--10--10--10--10--10----13--13--10--10--10--|
|-14--14----14--14--14--14--14--14--14----14--14--14--14--14--|
|(14)-14----14--12--12--12--14--14--14----14--14--14--14--14--|
|(10)-10----10--10--10--10--10--10--10------------------------|
|-------------------------------------------------------------|
|
|0------0--0----3--3----0------0--0------------|
|0------0--0----3--3----0------0--0----1--1----|
|0--2h--2--2----0--0----0--2h--2--2----0--0----|
|0--2h--2--2----0--0----0--2h--2--2------------|
|0------0--0---(2)-2----0------0--0----3--3----|
|--------------(3)-3---------------------------|


Begin fade out
|-14--14----14--15--15--15--14--12--14------------12--12--14--|
|-10--10----10--10--10--10--10--10--10----13--13--10--10--10--|
|-14--14----14--14--14--14--14--14--14----14--14--14--14-(14)-|
|(14)-14----14--12--12--12--14--14--14----14--14--14--14-(14)-|
|(10)-10----10--10--10--10--10--10--10------------------------|
|-------------------------------------------------------------|
|
|0------0--0----3--3----0------0--0------------|
|0------0--0----3--3----0------0--0----1--1----|
|0--2h--2--2----0--0----0--2h--2--2----0--0----|
|0--2h--2--2----0--0----0--2h--2--2------------|
|0------0--0---(2)-2----0------0--0----3--3----|
|--------------(3)-3---------------------------|


|-14--14-14-14--14----14-14-15--15--14--14-14-14--14--------------12--|
|-10--10-10-10--10----10-10-12--12--10--10-10-10--10----13-13-13--13--|
|-14--14-14-14--14----14-14---------14--14-14-14--14----12-12-12--12--|
|(14)-14-14-14--14----14-14-12--12--14--14-14-14--14----10-10-10-(10)-|
|(10)-10-10-10--10----10-10-10--10--10--10-10-10--10----10-10-10-(10)-|
|---------------------------------------------------------------------|
|
|0------0--0----3--3----0------0--0------------|
|0------0--0----3--3----0------0--0----1--1----|
|0--2h--2--2----0--0----0--2h--2--2----0--0----|
|0--2h--2--2----0--0----0--2h--2--2------------|
|0------0--0---(2)-2----0------0--0----3--3----|
|--------------(3)-3---------------------------|


|-14--14-14-14--14----14-14-15--15--14--14-14-14--14--------------12--|
|-10--10-10-10--10----10-10-12--12--10--10-10-10--10----13-13-13--13--|
|-14--14-14-14--14----14-14---------14--14-14-14--14----12-12-12--12--|
|(14)-14-14-14--14----14-14-12--12--14--14-14-14--14----10-10-10-(10)-|
|(10)-10-10-10--10----10-10-10--10--10--10-10-10--10----10-10-10-(10)-|
|---------------------------------------------------------------------|
|
|0------0--0----3--3----0------0--0------------|
|0------0--0----3--3----0------0--0----1--1----|
|0--2h--2--2----0--0----0--2h--2--2----0--0----|
|0--2h--2--2----0--0----0--2h--2--2------------|
|0------0--0---(2)-2----0------0--0----3--3----|
|--------------(3)-3---------------------------|


|-14--14-14-14--14----14-14-15--15--14--14-14-14--14--------------12--|
|-10--10-10-10--10----10-10-12--12--10--10-10-10--10----13-13-13--13--|
|-14--14-14-14--14----14-14---------14--14-14-14--14----12-12-12--12--|
|(14)-14-14-14--14----14-14-12--12--14--14-14-14--14----10-10-10-(10)-|
|(10)-10-10-10--10----10-10-10--10--10--10-10-10--10----10-10-10-(10)-|
|---------------------------------------------------------------------|
|
|0------0--0----3--3----0------0--0------------|
|0------0--0----3--3----0------0--0----1--1----|
|0--2h--2--2----0--0----0--2h--2--2----0--0----|
|0--2h--2--2----0--0----0--2h--2--2------------|
|0------0--0---(2)-2----0------0--0----3--3----|
|--------------(3)-3---------------------------|


|---14--14--14--14--12--------------17--12--12--12--------------|
|---10--10--10--10--10--13--12--10--10--10--13--12--10--10--10--|
|--(14)-14--14--14--14----------14--14--14----------14--14--14--|
|--(12)-12--12--12--12--12--12--12--12--12--12--12--10--10--12--|
|---------------------------------------------------------------|
|---------------------------------------------------------------|
|
|0------0--0----3--3----0------0--0------------|
|0------0--0----3--3----0------0--0----1--1----|
|0--2h--2--2----0--0----0--2h--2--2----0--0----|
|0--2h--2--2----0--0----0--2h--2--2------------|
|0------0--0---(2)-2----0------0--0----3--3----|
|--------------(3)-3---------------------------|


                                                                         Fade out
|----------------14--14--14--14----14----12----14----12----15----12----15----12--|
|10--13--12--10--10--10--10--10----10----10----10----10----10----10----10----10--|
|14----------14--14--14--14--14----14----14----14----14----14----14----14----14--|
|12--14--14--14--14--14--10-(12)---12--------------------------------------------|
|--------------------------------------------------------------------------------|
|--------------------------------------------------------------------------------|
|
|0------0--0----3--3----0------0--0------------0------0--0----3--3----|
|0------0--0----3--3----0------0--0----1--1----0------0--0----3--3----|
|0--2h--2--2----0--0----0--2h--2--2----0--0----0--2h--2--2----0--0----|
|0--2h--2--2----0--0----0--2h--2--2------------0--2h--2--2----0--0----|
|0------0--0---(2)-2----0------0--0----3--3----0------0--0---(2)-2----|
|--------------(3)-3-----------------------------------------(3)-3----|

There you go.  Once again my Latter Days Album should be done sometime during my summer.
Comments