Led Zeppelin - Ten Years Gone Chords & Tabs

 

Ten Years Gone Chords & Tabs

Led Zeppelin Chords & Tabs

Version: 5 Type: Tab 0 ratings
1 star 2 stars 3 stars 4 stars 5 stars
comments

Ten Years Gone Tab

   
Artist: Led Zeppelin
Album: Physical Graffiti
Song: Ten Years Gone (solo)
Tab Key:
| / slide up
| \ slide down
| v vibrato
| h hammer on
| p pull off
| b bend 
| r release bend

Solo: distorted electric
e----------------------------------------------------------------------|
b---10/12-\10vv--------------------------------------------------------|
g---9//11-\9vvv--9-/11-\9vvvv--9bv--9bvvv--9br--7-------------9br9p7---|
d----------------9-/11-\9vvvv----------------------9-\5vvvv----------9-|
a----------------------------------------------------------------------|
e----------------------------------------------------------------------|

e-----------------/7--7vvvv----------------|-----------------------|
b-----------------/8--7vvvv----------------|-----------------------|
g--7-h9-p7vvv------------------------------|o-11h14p11--9h11p9--7-o|
d------------------------------------------|o---------------------o|
a------------------------------------------|-----------------------|
e----------------------------5--\3--2vvvv--|-----------------------|

e--------------------------------------------------------------------------|
b--------------------/12vv---------------------15--17bvv--17b19vv-17b20r17-|
g--11h14p11--9h11p9--/11vv--(/13)--16vvvv--14b-----------------------------|
d--------------------------------------------------------------------------|
a--------------------------------------------------------------------------|
e--------------------------------------------------------------------------|
[ Tab from: http://www.guitartabs.cc/tabs/l/led_zeppelin/ten_years_gone_tab_ver_5.html ]
e------------------------15-16-17--17bv-------------17bvv-17-15-17p15--|
b--15--15h17-15vvv---17b----------------15vvv-17bvv--------------------|
g----------------------------------------------------------------------|
d----------------------------------------------------------------------|
a----------------------------------------------------------------------|
e----------------------------------------------------------------------|


e-------------------------------------17--17\15-----------|
b-------15h17p15--17br17p15----15vv-----------------------|
g--16-----------------------16-------------------14vvv----|
d---------------------------------------------------------|
a---------------------------------------------------------|
e---------------------------------------------------------|

e---------------------------------------|-----------------------|
b---------------------------------------|-----------------------|
g--14-/16-\14vv-------------------------|o-11h14p11--9h11p9--7-o|
d--14-/16-\14vv--14p12------------------|o---------------------o|
a----------------------14--\12--\9vvvv--|-----------------------|
e---------------------------------------|-----------------------|

e-----------------------------------15-16-17--17br--------------------------|
b-----------------------15-16--17bvv----------------17br17p15vvv-17br17p15--|
g----7h9--//16vvvv--14b-----------------------------------------------------|
d--7------------------------------------------------------------------------|
a---------------------------------------------------------------------------|
e---------------------------------------------------------------------------|


e-------------------------------|
b-----17--17br17p15-----17vvv\--|
g--16---------------16----------| solo end. good luck with it
d-------------------------------|                                            
a-------------------------------|                                            
e-------------------------------|
Comments