Led Zeppelin - Ten Years Gone Chords & Tabs

 

Ten Years Gone Chords & Tabs

Led Zeppelin Chords & Tabs

Version: 4 Type: Tab 0 ratings
1 star 2 stars 3 stars 4 stars 5 stars
comments

Ten Years Gone Tab

   
----------------------LED ZEPPELIN-TEN YEARS GONE---------------------------
 
Tabbed by: fridzeppelin
Email: fridzeppelin@yahoo.com

Tuning: Drop D(tune low E string down to D)



| x  Mute note

                let ring
e|-----------------------------------------------|
B|----2--0---0--3-------3-----------3------------|
G|----2----2----2-------2--------2-----2-----2---|
D|----2---------3-------3-----3-----------3--2---|
A|-0--0---------0-------0--0-----------------0---|
E|-----------------------------------------------|


e|-------0----------------------|
B|----2-------0--3---3-3-3------|
G|----2-----2----2---2-----2----|
D|----2----------3---3-------3--|
A|-0--0----------0---0----------|
E|------------------------------|

                let ring
e|----------------------------------------------|
B|----2--0---0--3-------3-----------3-----------|
G|----2----2----2-------2--------2-----2-----2--|
D|----2---------3-------3-----3-----------3--2--|
A|-0--0---------0-------0--0-----------------0--|
E|----------------------------------------------|


e|-------0----------------------|
B|----2-------0--3---3-3-3------|
G|----2-----2----2---2-----2----|
D|----2----------3---3-------3--|
A|-0--0----------0---0----------|
E|------------------------------|
[ Tab from: http://www.guitartabs.cc/tabs/l/led_zeppelin/ten_years_gone_tab_ver_4.html ]
you will have to listen to the song to get the timing right on this part       
e|---------2-2-|-x-x-7-7-7-7-x-x-----------------|
B|-2-2-x-x-2-2-|-x-x-8-8-8-8-x-x-7-7-7-7--7-x-5--|
G|-2-2-x-x-2-2-|-x-x-9-9-9-9-x-x-6-6-6-6--6-x-4--|
D|-2-2-x-x-----|-----------------7-7-7-7--7-x-5--|
A|-0-0---------|---------------------------------|
E|-------------|---------------------------------|

This part is played with some distortion 
e|---------------------------------------------------------|
B|-----------------------------0-------------------------2-|
G|-------------------2--4-2--4-4-4--6-2---2-4-2--2-2-2-4-2-|
D|-----------2-3-2---2--2-2--5-5-5--5-4---4-4-4--3-3-3-3-2-|
A|------0-3--------0--------------------0------------------|
E|-2-3-----------------------------------------------------|

e|-----------------------------------------|
B|-------------0-------------------------2-|
G|----2-4-2--4-4-4--6-2---2-4-2--2-2-2-4-2-|
D|----2-2-2--5-5-5--5-4---4-4-4--3-3-3-3-2-|
A|-0--------------------0------------------|
E|-----------------------------------------|

e|-----------------------------------------|
B|-------------0-------------------------2-|
G|----2-4-2--4-4-4--6-2---2-4-2--2-2-2-4-2-|
D|----2-2-2--5-5-5--5-4---4-4-4--3-3-3-3-2-|
A|-0--------------------0------------------|
E|-----------------------------------------|

                                         v heavy part ends here
e|----------------------------------------------------------------|
B|-------------0-------------------------2--0---0-3--------3------|
G|----2-4-2--4-4-4--6-2---2-4-2--2-2-2-4-2----2---2------2---2----|
D|----2-2-2--5-5-5--5-4---4-4-4--3-3-3-3-2--------3----3-------3--|
A|-0--------------------0-------------------------0--0------------|
E|----------------------------------------------------------------|

After this you lead back in to the first part
Comments