Led Zeppelin - Ten Years Gone Chords & Tabs

 

Ten Years Gone Chords & Tabs

Led Zeppelin Chords & Tabs

Version: 1 Type: Bass Tab 0 ratings
1 star 2 stars 3 stars 4 stars 5 stars
comments

Ten Years Gone Bass Tab

Ten Years Gone - Led Zeppelin


G|----------------|----------------|----------------|----------------|
D|----------------|----------------|----------------|----------------|
A|----------------|----------------|----------------|----------------|
E|----------------|----------------|--------5-5-351-|(1)-------------|

G|----------------|----------------|----------------|----------------|
D|----------------|----------------|----------------|----------------|
A|----------------|----------------|----------------|----------------|
E|--------5-5-351-|(1)-------------|5-------5-5-351-|(1)-------------|

                                                             repeat
G|---------------------------|--------|---5-910-9-|------------------------------|
D|---------------------------|--------|-57--------|7-797-9-9-9107--7-797-7-7---7-|
A|---/9-99-97-77-75-555-553--|(3)-----|5----------|---------------------------7--|
E|5-5------------------------|--------|-----------|--------------------------9---|

G|----------------|----------------|----------------|----------------|
D|----------------|----------------|----------------|----------------|
A|----------------|----------------|----------------|----------------|
E|--------5-5-351-|(1)-------------|--------5-5-351-|(1)-------------|
                                         There as it was....
                                                                      
G|----------------|----------------|---------------------------|--------|---5-910-9-|
D|----------------|----------------|---------------------------|--------|-57--------|
A|----------------|----------------|---/9-99-97-77-75-555-553--|(3)-----|5----------|
E|5-------5-5-351-|(1)-------------|5-5------------------------|--------|-----------|

          repeat
G|------------------------------|----------------|----------------|----------------|
D|7-797-9-9-9107--7-797-7-7---7-|----------------|----------------|----------------|
A|---------------------------7--|----------------|----------------|----------------|
E|--------------------------9---|--------5-5-351-|(1)-------------|--------5-5-351-|

G|----------------|----------------|----------------|----------------------------------|
D|----------------|----------------|----------------|----------------------------------|
A|----------------|----------------|----------------|---/9-99-97-77-75-555-553-5-555-55|
E|(1)-------------|5-------5-5-351-|(1)-------------|5-5-------------------------------|


                   Guitar Solo
G|----------------|----------------|----------------|----------------|
D|----------------|0-----0---------|5-50-05-----5501|2-222-22-0--2-0-|
A|3---------------|----------------|----------------|----------2-----|
E|----------------|----------------|----------------|----------------|
[ Tab from: http://www.guitartabs.cc/tabs/l/led_zeppelin/ten_years_gone_btab.html ]
G|----------------|----------------|----------------|----------------|
D|--0---0---------|---------------4|5--0--05-----0--|22-22222-0--2-0-|
A|----------------|5-----5-------7-|---------------2|----------2-----|
E|----------------|----------------|--------------3-|----------------|

G|----------------|----------------|----------------|----------------|
D|--0---0---------|0-----0-------0-|---0-05------0-0|2--2--22-22-2-0-|
A|----------------|------------02--|--------------2-|----------------|
E|----------------|----------------|3---------------|----------------|

G|----------------|----------------|----------------|----------------|
D|--0---0---------|---------------4|5-50-05------0-0|2-222-22-0--2-0-|
A|----------------|5-----5-------7-|--------------2-|----------2-----|
E|----------------|----------------|----------------|----------------|

G|----------------|----------------|----------799--9977-7-----------|
D|--0---0---------|----------------|----------577997755-5--5555-----|
A|-----------00220|0-------------5-|(5)---5-----------------------5-|
E|----------3-----|-33-3---33------|--------------------------------|
                                            "Do you ever really need somebody?"

G|----------799--9977-7-----------|----------799--9977-7-----------|
D|----------577997755-5--5555-----|----------577997755-5--5555-----|
A|(5)---5-----------------------5-|(5)---5-----------------------0-|
E|--------------------------------|--------------------------------|

G|----------2-----|----------------|--------7-77----|----------------|
D|--------2---2-0-|(0)---0-7-0---5-|------55----5---|----------------|
A|(0)---0------4--|----------------|-------------53-|--3---------3---|
E|----------------|----------------|----------------|--------------34|

                                                     2/4 time 4/4 time
G|----------------|----------------|----------------|--------|---5-910-9-|
D|------------7---|------797-----5-|------55----5---|--------|-57--------|
A|--------7-7---5-|--5-5-----5-5---|--------5-----3-|(3)-----|5----------|
E|5---5-----------|----------------|----------------|--------|-----------|

         repeat
G|------------------------------|----------------|----------------|----------------|
D|7-797-9-9-9107--7-797-7-7---7-|----------------|----------------|----------------|
A|---------------------------7--|----------------|----------------|----------------|
E|--------------------------9---|--------5-5-351-|(1)-------------|--------5-5-351-|


G|----------------|----------------|---------------------------|
D|----------------|----------------|---------------------------|
A|----------------|----------------|---/9-99-97-777-775-555-553|
E|(1)-------------|--------5-5-351-|5-5------------------------|

  4/4 time
G|----------------| ----------------|----------------|----------------|---------------- |
D|------3-2-------|o----------------|------7---------|----------------|------7---------o|
A|(3)--0----------|o----------------|-----7----------|----------------|-----7----------o|
E|----------5-5-5-| --5-555---5-555-|--5-9-----5-555-|--5-555---5-555-|--5-9-----5-555- |
                                                                        Repeat and fade

tabbed by Achilles (blue_sincere@hotmail.com)
Comments