Led Zeppelin - Tangerine Chords & Tabs

 

Tangerine Chords & Tabs

Led Zeppelin Chords & Tabs

Version: 3 Type: Tab 0 ratings
1 star 2 stars 3 stars 4 stars 5 stars
comments

Tangerine Tab

I only included the electric guitar parts.
First Chorus
-----------------------|---------------------|------------------------|
--------8--7/-8-----8--|--8------8-----------|--8------8--7--------8--|
-----------------7-----|--7b-----7--7b-------|--7------------7-----9--|
-----------------------|---------------------|--7b--------------9-----|
-----------------------|---------------------|------------------------|
-----------------------|---------------------|------------------------|

--------------------|------------------------|--------------------|
--8------8----------|--8------8--7--8-----8--|--8------8----------|
--7b-----7b---------|--7---------------7-----|--7b-----7b---------|
--------------------|--7b--------------------|--------------------|
--------------------|------------------------|--------------------|
--------------------|------------------------|--------------------|


--------------------------|-------------------------|-----------|----------|
--8-----8----8-8-----8----|--8--8---8-8--7------8-8-|--7--------|----------|
--7--------7------7--7b---|--9--7---7-7--7------7-7-|--7--------|----------|
--7h-9--------------------|-------------------------|-----------|----------|
--------------------------|-------------------------|-----------|----------|
--------------------------|-------------------------|-----------|----------|

Solo
--------------------|--------------------------|------------------------|
--10----------------|--13~-------15/-17----15--|--15--------------13/12/|
--------------------|--------------------------|------------------------|
--------------------|--------------------------|------------------------|
--------------------|--------------------------|------------------------|
--------------------|--------------------------|------------------------|

------------------------|--------------------------------|
--13----------15----15/-|--12~-----12-12-13/-15----12/10/|
------------------------|--12~---------------------------|
------------------------|--------------------------------|
------------------------|--------------------------------|
------------------------|--------------------------------|

--------------------------------|--17----15~-----19----19--|
--12----12--12--12--13/-15------|--------------------------|
--------------------------------|--------------------------|
--------------------------------|--------------------------|
--------------------------------|--------------------------|
--------------------------------|--------------------------|
[ Tab from: http://www.guitartabs.cc/tabs/l/led_zeppelin/tangerine_tab_ver_3.html ]
--19--17~---17--19/-20----20--|--22~-----22/---------|
------------------------------|----------------------|
------------------------------|----------------------|
------------------------------|----------------------|
------------------------------|----------------------|
------------------------------|----------------------|
Second Chorus
--------15------15----15--|--15------15----------|----------15--14------14----|
------------15--------15--|--15b-----15b---------|--15--------------15--------|
--------------------------|----------------------|--14b-----------------------|
--------------------------|----------------------|----------------------------|
--------------------------|----------------------|----------------------------|
--------------------------|----------------------|----------------------------|

--15--15--15--15----------|----------15--14------14----|
--------------15b---------|--15--------------15--------|
--------------------------|--14b-----------------------|
--------------------------|----------------------------|
--------------------------|----------------------------|
--------------------------|----------------------------|

--15--------15----15----|------------------------15-12-|
--15b-------15b---15r---|--15----------15--12-15-------|
------------------------|--14b-------------------------|
------------------------|------------------------------|
------------------------|------------------------------|
------------------------|------------------------------|

--15-----15-15-15-15---15-15-15-15--|--15----------------|------------------|
--15b----15-15-15-15---15-15-15-15--|--15----------------|------------------|
------------------------------------|--------------------|------------------|
------------------------------------|--------------------|------------------|
------------------------------------|--------------------|------------------|
------------------------------------|--------------------|------------------|
Outro
------------------|------------------|------------10--12/-10---------|
------------------|------------------|------10-12-----12/-10--8/7----|
------------------|------------------|----------------------------7--|
------------------|------------------|-------------------------------|
------------------|------------------|-------------------------------|
------------------|------------------|-------------------------------|

-------------10--12/-10---------|---------13-13-----13-----13-----13--|
-------10-12-----12/-10--8-7----|-----13b-------13b----13b----13b-----|
--7--------------------------7--|--7----------------------------------|
--------------------------------|-------------------------------------|
--------------------------------|-------------------------------------|
--------------------------------|-------------------------------------|

------------10--12/-10---------|-------------10----------------|
------10/12-----12/-10---------|--------12------12/-10---------|
------------------------9-7-9--|--7--7------------------7-9-7--|
-------------------------------|-------------------------------|
-------------------------------|-------------------------------|
-------------------------------|-------------------------------|

------------10----------------|------------10----------------|
-------12------12/-10---------|-------12------12/-10---------|
--7--------------------7-9-7--|--7--------------------11--9--|
------------------------------|------------------------------|
------------------------------|------------------------------|
------------------------------|------------------------------|

-------------------|--------|--------|--------|--------||
-------------------|--------|--------|--------|--------||
--9----------------|--------|--------|--------|--------||
-------------------|--------|--------|--------|--------||
-------------------|--------|--------|--------|--------||
-------------------|--------|--------|--------|--------||
Comments