Led Zeppelin - Stairway To Heaven Chords & Tabs

 

Stairway To Heaven Chords & Tabs

Led Zeppelin Chords & Tabs

Version: 3 Type: Tab 0 ratings
1 star 2 stars 3 stars 4 stars 5 stars
comments

Stairway To Heaven Tab

   
Led Zeppelin.
 Tabbed by Stairway to Heaven (solo).
  
/=slide
b=bend
r=rake 
pb=prebend

E   ----5---------------|-5-8-8-8b-8-5-5r----
B   -----8-5------------|----------------8/10
G   --7b----7-5-7-5-----|--------------------
D   -----------7---7-5--|--------------------
A   ------------------8-|--------------------
E   --------------------|--------------------

E   -8-10-8-----------|---5------------------|
B   -------10-8--8-10-|----8-5---------------|
G   -----------10-----|-7b----7-5-7-5--------|
D   ------------------|----------7---7-5-5-7-|
A   ------------------|-----------------7----|
E   ------------------|----------------------|

E   --------------------------------|
B  ----------8pb-5-----------------|
G  -5-5--5-0------7-5-7p5----------|
D  --7---------------7---7p5-7p5---|
A  ------------------------------8-|
E  --------------------------------|
[ Tab from: http://www.guitartabs.cc/tabs/l/led_zeppelin/stairway_to_heaven_tab_ver_3.html ]
E   ------------------------8-|-----------------|
B   -----5-----------8-8-10---|-15b-15-13-15-13-|
G   ----5--7-5--5-7/9---------|-----------------|
D   -5/7-------7--------------|-----------------|
A   --------------------------|-----------------|
E   --------------------------|-----------------|
                                        (10x)below
E   -15b-15-12-|--------------------------|
B   -----------|-15b(up/down)p13---13----|
G   -----------|------------------14------|
D   -----------|--------------------------|
A   -----------|--------------------------|
E   -----------|--------------------------|

E  -15b----12-15-12---------------------------15 
B  ----------------15-13--13-15-13--13-15b(hold)
G  ---------------------14---------14-----------
D  -------------------------------------------- 
A  -------------------------------------------- 
E  --------------------------------------------
                                      (5x)below
E   -----------------|----20p17-|
B   -15b(let go)-13---|--17------|
G   --------------14-|----------|
D   -----------------|----------|
A   -----------------|----------|
E   -----------------|----------|
Then it goes into the rythm, the chords.
This solo is correct, I learned it from my guitar teacher. 
:: Ultimate Guitar Archive :: 
http://www.ultimate-guitar.com 



Comments