Led Zeppelin - Since Ive Been Loving You Chords & Tabs

 

Since Ive Been Loving You Chords & Tabs

Led Zeppelin Chords & Tabs

Version: 3 Type: Tab 0 ratings
1 star 2 stars 3 stars 4 stars 5 stars
comments

Since Ive Been Loving You Tab

Title: Since Iíve Been Loving You - Led Zeppelin
Email - Smaralec14805@aol.com
Album: Early Days
Standard Tuning: This is just the solo

E------------------------------------------------------------------------------------------------|
B---------8h11p8--11p8-----8---------------------------------------------------------------------|
G---10b--------------------10--10p8----8------------------------------------------------8--------|
D---------------------------------------10--10-8h10p8-----10-------------------------8--10p8h10--|
A-----------------------------------------------------------10----10-8p6-8-6--6/8--10------------|
E--------------------------------------------------------------------------------8---------------|

E-----------------------------------------------------------------------------11-10-8-9-10-8-999--------|
B----------------------------------------------------------------------8-9---------------------------8--|
G--10p8---10p8---8----------8-10-10b-10b-10-8-10-10~---------------------------------------10p8---------|
D--------10------10---10-10~----------------------------------------------------------------------------|
A-------------------------------------------------------------------------------------------------------|
E-------------------------------------------------------------------------------------------------------|

E-----------------------------------------------------------------------8-----------------------|
B---------------------------------------------------------------------8--11p8-------------------|
G----------------------------------------------------------------10b-----------10b-10-8------8--|
D---10-8-6---8-6--6----------------------------------------------------------------------10-----|
A------------8-----8--8---------10h11p10--8p6--5------------------------------------------------|
E--------------------------------------------------------8~-------------------------------------|

E-------11-13-11-13b-13b-13brp11-13-11~--13-11-13b-13b-13rb11-13-11~--|
B---/13---------------------------------------------------------------|
G---------------------------------------------------------------------|
D---------------------------------------------------------------------|
A---------------------------------------------------------------------|
E---------------------------------------------------------------------|

E----16-15--------------------------------------------------------------------------------------------------|
B---------------------------------------------------------------------16---------------13-16-13-16b19rb-13--|
G--------------\12----12-13-15-13-12----------13-15-15b-15b---15b-------------------------------------------|
D-------------------15--------------------15-15~------------------------------------------------------------|
A-----------------------------------------------------------------------------------------------------------|
E-----------------------------------------------------------------------------------------------------------|
[ Tab from: http://www.guitartabs.cc/tabs/l/led_zeppelin/since_ive_been_loving_you_tab_ver_3.html ]
E-------------------------------------------------------------|
B----16b19rb--13-16b19-16b19-16b19--16-16b19-16-16b19-16-13\--|
G-------------------------------------------------------------|
D-------------------------------------------------------------|
A-------------------------------------------------------------|
E-------------------------------------------------------------|

E---------8-11---------------------------------------------------------------------------------------|
B-------8------8h11p8----8---------------------------------------------------------------------------|
G--10b------------------10--10-8h10p8----8---------------------------------------------------------8-|
D-------------------------------------------10--10-8h10p8----8-----------------------8----8-10-10----|
A--------------------------------------------------------------10--10-6h8p6--6--6-10--10-------------|
E-------------------------------------------------------------------------------8--8-----------------|


E---------------8------11p8-10p8----8------------------------------------------------|
B-------------8--11p8--------------10--11br8------8----------------------------------|
G------8-10b-------------------------------------10b--11p10-8-----10---8-------------|
D--10---------------------------------------------------------------10---10---10-10--|
A------------------------------------------------------------------------------------|
E------------------------------------------------------------------------------------|

E--------------------------------------------------------------------10-13b-13b~--13-10-13b-13-10-12-10----------------|
B-----------------------------------------------------------11---11----------------------------------------------11-11~|
G-8-10-8---------10---8----------10----8----8-10h12----12--------------------------------------------------------------|
D----------10-10---------10-10------------10---------------------------------------------------------------------------|
A----------------------------------------------------------------------------------------------------------------------|
E----------------------------------------------------------------------------------------------------------------------|

E----------------------------------------------15---15----15---13---15------------|
B----9----11-----13---16---13---16-------18b--18b--18b -17b--18b--16---13---------|
G---11b--13b---15b~------15b------15-----------------------------------------15b--|
D---------------------------------------------------------------------------------|
A---------------------------------------------------------------------------------|
E---------------------------------------------------------------------------------|

E---------8-----------------------------------------------13b-13b--13br11-13-11-13b-13b-13br13-11-----8\--------------|
B-------8--11p8---------------------------------------------------------------------------------------------------8\--|
G--10b----------10b-10-8---------------------8-10-8-------------------------------------------------------------------|
D----------------------------10-10-10------10-------------------------------------------------------------------------|
A---------------------------------------------------------------------------------------------------------------------|
E---------------------------------------------------------------------------------------------------------------------|
Comments