Led Zeppelin - Rock And Roll Chords & Tabs

 

Rock And Roll Chords & Tabs

Led Zeppelin Chords & Tabs

Version: 2 Type: Tab 15 ratings
1 star 2 stars 3 stars 4 stars 5 stars
comments

Rock And Roll Tab

   
Rock and Roll
by led zeppelin (the greatest band in the world)

i saw a shortage of transcriptions on this website so i 
posted the main part of this song, ill post more later but
right now im too bored. 

|-----------------|---------------|----------------|-----------------|
|-----------------|---------------|----------------|-----------------| 
|-----------------|---------------|----------------|-----------------| 
|--2---2-5-2-4----|-2-4-2-2-2-4-2-|-2---2-5-2-4----|-2-4-2-2-2-4-2---| 
|--0-4-0-0-0-0-3^-|-0-0-0-0-0-0-0-|-0-4-0-0-0-0-3^-|-0-0-0-0-0-0-0---|   
|-----------------|---------------|----------------|-----------------|

                                                     1 + 2(+) 3 + 4(+)
|-----------------|---------------|----------------|-----------------|
|-----------------|---------------|----------------|-----------------|
|-2---2-5-2-4-----|-2-4-2-2-2-4-2-|----------------|-----------------|
|-0-4-0-0-0-0-3^--|-0-0-0-0-0-0-0-|-2---2-5-2-4----|----------2-2-2--|
|-----------------|---------------|-0-4-0-0-0-0-3^-|-2-2-2----0-4-0--|
|-----------------|---------------|----------------|-0-3-0-----------|

[ Tab from: http://www.guitartabs.cc/tabs/l/led_zeppelin/rock_and_roll_tab_ver_2.html ]
verse:
   1 e    3 e     1 e    3 e  a 4
|--------------|-------------------|
|----2------2--|----2------2--0-2--|
|----2------2--|----2------2--0-2--|
|----2------2--|----2------2--0-2--|
|----0------0--|----0------0--0-0--|
|--3------3----|--3------3---------|
 
Its been a long time since I’ve rock and rolled
Its been a long time since I did the stroll

|-------------|----------------|
|----3-----3--|----3-----3---3-|
|----2-----2--|----2-----2---2-|
|----0-----0--|----0-----0---0-|
|--3-----3----|--3-----3---3---|
|-------------|----------------|

Ohhhh let me get back, let me get back, baby where I come from


|--------------|-------------------|
|----2------2--|----2------2--0-2--|
|----2------2--|----2------2--0-2--|
|----2------2--|----2------2--0-2--|
|----0------0--|----0------0--0-0--|
|--3------3----|--3------3---------|

|-----------------|-----------------|-----|
|-----------------|-----------------|-----|
|-9-9-9-9-9-9-9-9-|-9-9-9-9-9-9-9-9-|-7---|
|-9-9-9-9-9-9-9-9-|-9-9-9-9-9-9-9-9-|-7---|
|-7-7-7-7-7-7-7-7-|-7-7-7-7-7-7-7-7-|-5---|
|-0-0-0-0-0-0-0-0-|-0-0-0-0-0-0-0-0-|-0---| 

It's been a long time been a long time lonely lonely lonely time

|----------------|---------------|
|----------------|---------------|
|----------------|---------------|
|--2-4-2-2-2-4-2-|---------2-2-2-|
|--0-0-0-0-0-0-0-|-2-2-2---0-4-0-|
|----------------|-0-3-0---------|

repeat back to the verse


Comments