Led Zeppelin - Rock And Roll Chords & Tabs

 

Rock And Roll Chords & Tabs

Led Zeppelin Chords & Tabs

Version: 1 Type: Tab 3 ratings
1 star 2 stars 3 stars 4 stars 5 stars
comments

Rock And Roll Tab

#----------------------------------PLEASE NOTE--------------------------------#
#This file is the author's own work and represents their interpretation of the#
#song. You may only use this file for private study, scholarship, or research.#
#-----------------------------------------------------------------------------#
#-- File created with Instab - http://www.pconline.com/~smcarey/instab.html --#
#-----------------------------------------------------------------------------#

Author/Artist: Led Zeppelin
Title: Rock and roll(solo)
Album: Led Zeppelin IV
Transcribed by: Chris
Email: jnplgrgrngo@cpmcast.net

Great, Great song. Here are the signs:
b=bend, r=release, b*=bend quarter step, \=slide down.

ROCK ON!!!!!!!

------------------------------------------------------------------------------
----------------------------5b*-----------------------------------------------
----------------------------5b*-----------------------------------------------
--------------------------------7-5-7-5-7-------------------------------------
------------------------------------------------------------------------------
------------------------------------------------------------------------------
                                                                              

------------------------------------------------------------------------------
------------------------------------------------------------------------------
------------------------------------------------------------------------------
------------------------------------------------------------------------------
-3p0---3p0----3-0-3---3-0--3p0----3p0---3p0----3p0h3--3p0----3p0-0------------
-----3-----3-------------------3------------3-------------3-------------------
                                                                              

------------------------------------------------------------------------------
------------------------------------------------------------------------------
-0---------------------------------------------2-0-----------0----------------
---2-0------------------------2p0-------0-2p0------2--0--2p0-----2------------
-------3b*---0---0-----0-3-0------3p0-3---------------------------------------
--------------------3---------------------------------------------------------
                                                                              
[ Tab from: http://www.guitartabs.cc/tabs/l/led_zeppelin/rock_and_roll_tab.html ]
----------5-----------------------------5--------5----------------------------
--------5---------------------------------------------------------------------
--7-7b9-----7b9r7p5---7-5-------7--7b9------7b9-------------------------------
--------------------7-----7-5-7-----------------------------------------------
------------------------------------------------------------------------------
------------------------------------------------------------------------------
                                                                              

------------------------------------------------------------------------------
----8p5----9p6---10p7---11p8----12p9----13p10----10----13b16r13b16r13---------
--------7------8------9------10------11-------12----12------------------------
------------------------------------------------------------------------------
------------------------------------------------------------------------------
------------------------------------------------------------------------------
                                                                              

------------------------------------------------------------------------------
-10----12b13-12-10----12b13--12-10--10----12b13--12-10----12----10-12--10-----
----12-------------12------------------11--------------11----11---------------
------------------------------------------------------------------------------
------------------------------------------------------------------------------
------------------------------------------------------------------------------
                                                                              

-------12-------------15b17--15b17--15b17--15b17-----------12-----------------
-10-10----12b14-10----15b17--15b17--15b17--15b17--15-14-15----13b*------------
--------------------------------------------------------------------14\-------
------------------------------------------------------------------------------
------------------------------------------------------------------------------
------------------------------------------------------------------------------
                                                                              

-----------------------7b9-5----------|-------|-------------------------------
-8p5----8p5----8p5---5-------5---5----|-8p5---|----------------5-7------------
-----6------6------6-----------7---7\-|-----7-|--5-7-5b*----------------------
--------------------------------------|-------|----------7-7------------------
--------------------------------------|-------|-------------------------------
--------------------------------------|-------|-------------------------------
                                        X4                                    

------------------------------------------------------------------------------
----------------5b*--7--------------------------------------------------------
----------------5b*--7---5b*------------------------------------2-------------
------------------------------7--7-------------7----------------2-------------
-------------------------------------------------0--------------0-------------
---------------------------------------------------5\-------3b*---------------
                                   ZEPPELIN AND ROCK AND ROLL FOREVER!!!!!!!! 

Comments