Led Zeppelin - Ramble On Chords & Tabs

 

Ramble On Chords & Tabs

Led Zeppelin Chords & Tabs

Version: 1 Type: Bass Tab 1 rating
1 star 2 stars 3 stars 4 stars 5 stars
comments

Ramble On Bass Tab

Ramble On
by Led Zeppelin
Originally Tabbed by Andy White
Corrections and additions by Beelzebob (blzbob@hotmail.com)

Intro:
G|----------/11-9------/13-11-9--------------9----|-
D|----9---7---------------------11-9--7h9h11---11-|-
A|-7------------------7---------------------------|-
E|------------------------------------------------|-

First Verse: 4 times
G|----------/11-9----------/13-11-9--------------9----|-
D|----9---7-------11(11)*-----------11-9--7h9h11---11-|-
A|-7----------------------7---------------------------|-
E|----------------------------------------------------|-
*play note only on 4th time

Bridge:
G|---------------------------------------------------|-
D|---------------------------------------------------|-
A|------------------7--5-------------------4--7--5---|-
E|--0--2--4---5--7-------7--0--2--4---5-7----------7-|-

First Chorus:
G|-----9-9-----------9--7--9---7h9-------------------9---7--9--7h9-
D|---------------7777-77-77-777--------9---------7777-777-77-77----
A|-7-7---------(7)-----------------7-7---7-----(7)-----------------
E|---------5-6-7---------------------------5-6-7-------------------

G-----9-------------9--7--9---7h9-----9-------------9--7--7789-|-
D---------------7777-77-77-777------------------7777-77-77-----|-
A-7-7---7-----(7)-----------------7-7---7-----(7)--------------|-
E---------5-6-7---------------------------5-6-7----------------|-

Second Verse: 2 Times
G|----------/11-9------/13-11-9--------------9----|-
D|----9---7-------11------------11-9--7h9h11---11-|-
A|-7------------------7---------------------------|-
E|------------------------------------------------|-

First Guitar Solo: 2 times
G|----------/11-9-------/13-11-9--------------9----|-
D|----9---7-------11-9-----------11-9--7h9h11---11-|-
A|-7-------------------7---------------------------|-
E|-------------------------------------------------|-

Second Chorus:
G|-----9-9-----------9--7--9---7h9-----9-------------9--7--9---7h9-
D|---------------7777-77-77-777------------------7777-77-77-777----
A|-7777----------------------------7-7---7-----(7)-----------------
E|---------5-6-7---------------------------5-6-7-------------------
[ Tab from: http://www.guitartabs.cc/tabs/l/led_zeppelin/ramble_on_btab.html ]
G-----9-------------9--7--9---7h9-----9-------------9--7--9----7h9-|-
D---------------7777-77-77-777------------------7777-77-77-7(7)----|-
A-7-7---7-----(7)-----------------7-7---7-----(7)------------------|-
E---------5-6-7---------------------------5-6-7--------------------|-

Guitar Solo:
G|-----------------------9-7h9-9---------------------------7-9-|-
D|-6h7--6h7----------6h7---------6h7-6h7--7---------6h7---9----|-
A|-----------5h7-7-0------------------------5h7-5h7------------|-
E|-------------------------------------------------------------|-

Third Verse:
G|----------/11-9------/13-11-9--------------9----
D|----9---7---------------------11-9--7h9h11---11-
A|-7------------------7---------------------------
E|------------------------------------------------

G----------/11-9------/13-11-9--------------9----
D----9---7---------------------11-9--7h9h11---11-
A-7------------------7---------------------------
E------------------------------------------------

G----------/11-9------/13-11-9--------------9----
D----9---7-------11------------11-9--7h9h11---11-
A-7------------------7---------------------------
E------------------------------------------------

G----------/11-9------/13-11-9--------------9----|-
D----9---7-------11------------11-9--7h9h11---11-|-
A-7------------------7---------------------------|-
E------------------------------------------------|-

Bridge:
G|-----------------------------------------------------|-
D|-----------------------------------------------------|-
A|----------------4--7--5-------------------4--777-5---|-
E|-0--2--4---5-7----------7--0--2--4---5-7-----------7-|-

Third Chorus:
G|-----9-------------9--7--9---7h9-----9-------------9--7--9---7h9-
D|---------------7777-77-77-777------------------7777-77-77-777----
A|-7-7---7-----(7)-----------------7-7---7-----(7)-----------------
E|---------5-6-7---------------------------5-6-7-------------------

G-----9-------------9--7--9---7h9-----9-------------9--7--7---7h9-|-
D---------------7777-77-77-777------------------7777-77-77-777----|-
A-7-7---7-----(7)-----------------7-7---7-----(7)-----------------|-
E---------5-6-7---------------------------5-6-7-------------------|-

Outro:
G|-----9-----------------------------------------------9--7-8-9-
D|------------------------------------------------7777-777------
A|-7-7---7------------7-----5---4------7--------(7)------------- etc.
E|---------5-6-77-5555--55-3-3-2-2-0-0---0-5-6-7----------------

Comments