Led Zeppelin - Poor Tom Chords & Tabs

 

Poor Tom Chords & Tabs

Led Zeppelin Chords & Tabs

Version: 1 Type: Bass Tab

Poor Tom Bass Tab

Poor Tom
Led Zeppelin

G|----------------|----------------|----------------|----------------|
D|20------19------|18--------------|20------19------|18--------------|
A|----------------|----201816------|----------------|----201816----15|
E|----------------|----------------|----------------|----------------|

G|----------------|----------------|----------------|----------------|
D|----------------|----------------|18--17-18-------|18--17-18-------|
A|13------------15-16--------------|----------16----|----------16----|
E|----------------|----------------|----------------|----------------|

G|----------------|----------------|----------------|----------------|
D|18--17-18-------|18--17-18-------|1817----1817----|1817----1817----|
A|----------16----|----------16----|----16------16--|----16------16--|
E|----------------|----------------|----------------|----------------|

G|----------------|----------------|----------------|----------------|
D|20------19------|18--------------|20------19------|18--------------|
A|----------------|----201816------|----------------|----201816----15|
E|----------------|----------------|----------------|----------------|

G|----------------|----------------|----------------|----------------|
D|----------------|----------------|----------------|18--17-18-------|
A|13------------15|16--------------|----------16----|----------16----|
E|----------------|----------------|16--15-16-------|----------------|

G|----------------|----------------|----------------|----------------|
D|----------------|18--17-18-------|1718----1817----|1817----1817----|
A|----------16----|----------16----|----16------16--|----16------16--|
E|16--15-16-------|----------------|----------------|----------------|
[ Tab from: http://www.guitartabs.cc/tabs/l/led_zeppelin/poor_tom_btab.html ]
G|----------------|----------------|----------------|----------------|
D|----------------|18--17-18-------|20------19------|18--------------|
A|----------16----|----------16----|----------------|----201816----15|
E|16--15-16-------|----------------|----------------|----------------|

G|----------------|----------------|-161816---------|----------------|
D|----------------|----------------|--------18161820|18--------------|
A|13------------15|16--------------|----------------|---16--16--16---|
E|----------------|----------------|----------------|----------------|

G|-1618-14-16-----|----------------|----------------|----------------|
D|------------1820|18--------------|----------------|----------------|
A|----------------|---16--16--16---|16--------------|16--------------|
E|----------------|----------------|----------------|----------------|

G|----------------|----------------|----------------|----------------|
D|20------19------|18--------------|20------19------|18--------------|
A|----------------|----201816------|----------------|----201816------|
E|----------------|----------------|----------------|----------------|

G|--------------------------------|--------------------------------|
D|-------------------18------18---|18----17----16------17--18--17--|
A|16161616--16---16------16-------|--------------------------------|
E|--------------------------------|--------------------------------|

G|--------------------------------|--------------------------------|
D|18181816------------------------|-------------------18-------18--|
A|--------------------18--17--16--|16161616--16---16------16-------|
E|--------------------------------|--------------------------------|

G|--------------------------------|--------------------------------|
D|-------------------18------18---|-------------------18------18---|
A|16161616--16---16------16-------|16161616--16---16------16-------|
E|--------------------------------|--------------------------------|

G|--------------------------------|--------------------------------|
D|--------------------------------|--------------------------------|
A|16161616--16---16---------------|16161616--16---16--16-----------|
E|--------------------------------|--------------------------------|

Led Zeppelin Is #1 Band