Led Zeppelin - Over The Hills And Far Away Chords & Tabs

 

Over The Hills And Far Away Chords & Tabs

Led Zeppelin Chords & Tabs

Version: 7 Type: Tab 0 ratings
1 star 2 stars 3 stars 4 stars 5 stars
comments

Over The Hills And Far Away Tab

Led Zeppelin - Over The Hills and Far Away
               From the Cd "Houses of the Holy"
               Written by Page/Plant
               Atlantic Records

Standard tuning applies [EADGBe] (low to high). The song is played in G.
Tabbed by: Will Robbins

| = not a standard bar line; just used to separate music
~ = vibrato
h = hammer on
p = pull off
s = slide
b = bend string up to indicated pitch pitch/fret
r = release bend to indicated string/fret
/ = slide up from infinity
\ = slide down into infinity


e----------------------------3-3---3--------------|
b----------------------------3-3---3--------------|
g---0h2p0--------0-----0-0---0-0---0--------------|
d-----------4p0--------0-0---------0--------------|
a----------------------2-2---------2--------------|
e----------------------3-3---------3--------------|

e-----------------------------2--2--2--2--2-------|
b-----------------------------3--3--3--3--3-------|
g---0h2p0------0----4p2p0-----2--2--2--2--2-------|
d-----------4--------------0----------------------|
a-------------------------------------------------|
e-------------------------------------------------|

e-----------------------------3-3--3--------------|
b-----------------------------3-3--3--------------|
g---0h2p0--------0------0-0---0-0--0--------------|
d-----------4p0---------0-0--------0--------------|
a-----------------------2-2--------2--------------|
e-----------------------3-3--------3--------------|

e-----------------------------2--2--2--2--2-----------------------------3-3-3
b-----------------------------3--3--3--3--3-----------------------------3-3-3
g---0h2p0-----0---4p2p0-------2--2--2--2--2------------------------0-0--0-0-0
d-----------4--------------0------------------------2-----0--2--0--0-0------0
d---------------------------------------------0--2-----2-----------2-2------2
e------------------------------------------------------------------3-3------3

e------------------------------------------------------------------------|
b--------------------3-3-3-----3-3-3-----3-----------------------/--5----|
g---0h2p0------------0-0-0-----0-0-0-----0--(strum and slide)-------0----|
d-----------4p0------2-2-2-----0-0-0-----3-----------------------/--5----|
a-----------------3--3-3-3--2--2-2-2--1--1-----------------------/--3----|
e------------------------------------------------------------------------|


solo:
[ Tab from: http://www.guitartabs.cc/tabs/l/led_zeppelin/over_the_hills_and_far_away_tab_ver_7.html ]
e--------10------------------------------------------------------------|
b--10b12~~~~10b12r10--------10--------------------------------(7s9)----|
g----------------------9b11~~~~9b11r9--------9---7----11s13------------|
d---------------------------------------7h9----9-----------second time-|
a--------------------------------------------------------------only----|
e----------------------------------------------------------------------|

e----------------------------------------------------------------------|
b-----------5----------------------------------------------------------|
g--4b6~--4b6~4--4b6r4b6r4b6r4--2~------------------------2-------------|
d-----------------------------------2-4--2-4--2-4--2-4-2---4~--2-------|
a----------------------------------------------------------------------|
e----------------------------------------------------------------------|

e----------------------------------------------------------------------|
b------------------------------------------------------------16b18-----|
g----------------------------------------------------------------------|
d---4p2---2------------------------------------------------------------|
a-------4--4-2-4-2-----------------------------------------------------|
e------------------4-5-2-0-2-0-0-2-2-2-2/7b8b9--2p0-2-2-0h2------------|

e----14--14---19b21~--18-16-14----14--14-------17----------17----------|
b-17---17--17------------------17---17---17b19----17-17b19---17-17-----|
g----------------------------------------------------------------------|
d----------------------------------------------------------------------|
a----------------------------------------------------------------------|
e----------------------------------------------------------------------|

e------17--------------------------------------------------------------|
b-17b19--17b19-17-16p15--14--------------------------------------------|
g----------------------17--17-16-14--16p14-14--------------------------|
d----------------------------------16----------------------------------|
a----------------------------------------------------------------------|
e----------------------------------------------------------------------|

e----------------------------------------------------------------------|
b----------------------------------------------------------------------|
g-14-14b15--------14-14b15---------------------------------------------|
d---------16-14-16---------16-14-16--16p15p14-----(14)-----------------|
a----------------------------------------------------------------------|
e----------------------------------------------------------------------|

e---------------------------4-------------------16--18\----------------|
b------------------------5------------------17-------------------------|
g------------1--3-3-3-6-------15-15-15--18-----------------------------|
d----------2-----------------------------------------------------------|
a-1-1-1-4--------------------------------------------------------------|
e----------------------------------------------------------------------|
Comments