Led Zeppelin - Over The Hills And Far Away Chords & Tabs

 

Over The Hills And Far Away Chords & Tabs

Led Zeppelin Chords & Tabs

Version: 5 Type: Tab 2 ratings
1 star 2 stars 3 stars 4 stars 5 stars
comments

Over The Hills And Far Away Tab

   
Over the Hills and Far Away
Led Zeppelin

Intro/Verse/Chorus


I haven't got the solo quite yet, sorry. It will be posted soon though!!!

Key
h= hammer on
p= pull off
/= slide
x= mute
                    
e|----------------3-3|------------------2-2-2-|---------------3-3|--------------2-2-2|
b|----------------0-0|------------------3-3-3-|---------------0-0|--------------3-3-3|
g|0h2p0-----0-----0-0|0h20---0--4p2p0---2-2-2-|0h2p0-----0----0-0|--------------2-2-2|
D|------4p0----0-----|-----4----------0-------|------4p0---0-----|----2---0h2-0------|
A|-------------2-----|------------------------|------------2-----|0h2---2------------|
E|-------------3-----|------------------------|------------3-----|-------------------|
[ Tab from: http://www.guitartabs.cc/tabs/l/led_zeppelin/over_the_hills_and_far_away_tab_ver_5.html ]
e|----------------3-3|------------------2-2-2-|--------------------------------------|
b|----------------0-0|------------------3-3-3-|-------------3-333----3-333----3--33-3|
g|0h2p0-----0-----0-0|0h20---0--4p2p0---2-2-2-|0h2p0---0----0-000----0-000----0--00-0|
D|------4p0----0-----|-----4----------0-------|------4------0-000----0-000----0--00-0|
A|-------------2-----|------------------------|-----------3--------2--------1--------|
E|-------------3-----|------------------------|--------------------------------------|

e|-------------------|
b|/5-55-555----------|
g|-0-00-000----------|
D|-0-00-000----------| x 2 for intro... however long for verses
A|/3-33-333----------|
E|-------------------|

e|777777/9-9-9-9-9--9|
b|888888/101010101010|
g|777777/9-9-9-9-9--9| x 4 for Intrelude
D|-------------------|
A|-------------------|
E|-------------------|


e|3-2-2---|
b|3-3-3-2-|
g|0-2-2-2-| Pre - Chorus 
D|------2-|
A|--------|
E|--------|


e|---------|
b|-------2-|
g|-------2-|  Chorus
D|-------2-|
A|55555x---|
E|33333x---|


Well rate this tab and if you have anything to say: roksok7@yahoo.com 

The name is David

The solo will be there soon. Thanks for taking the time!!!
Comments