Led Zeppelin - Over The Hills And Far Away Chords & Tabs

 

Over The Hills And Far Away Chords & Tabs

Led Zeppelin Chords & Tabs

Version: 4 Type: Tab 4 ratings
1 star 2 stars 3 stars 4 stars 5 stars
comments

Over The Hills And Far Away Tab

                 ^                              ^ 
---------------3-3-3|-----------------------2-2-2-2|
-0h2p0---------0-0-0|-0h2p0-----------------3-3-3-3|
------------0--0-0-0|----------0-h4p2p0-0---2-2-2-2|
--------4p0----0-0-0|--------4------------0-0-0-0-0|
---------------0-0-0|------------------------------|
---------------3-3-3|------------------------------|
[ Tab from: http://www.guitartabs.cc/tabs/l/led_zeppelin/over_the_hills_and_far_away_tab_ver_4.html ]
                 ^                              ^ 
---------------3-3-3|-----------------------2-2-2-2|
-0h2p0---------0-0-0|-0h2p0-----------------3-3-3-3|
------------0--0-0-0|----------0-h4p2p0-0---2-2-2-2|
--------4p0----0-0-0|--------4------------0-0-0-0-0|
---------------0-0-0|------------------------------|
---------------3-3-3|------------------------------|
[ Tab from: http://www.guitartabs.cc/tabs/l/led_zeppelin/over_the_hills_and_far_away_tab_ver_4.html ]                   ^
-----------------3-3-3|--------------------|
-----------------0-0-0|-0h2p0---0-h4p2p0-0-|
-----------------0-0-0|-------4-----------0|
-----2---2-0h2p0-0-0-0|--------------------|
-0-2---2---------0-0-0|--------------------|
-----------------3-3-3|--------------------|
Comments