Led Zeppelin - Over The Hills And Far Away Chords & Tabs

 

Over The Hills And Far Away Chords & Tabs

Led Zeppelin Chords & Tabs

Version: 2 Type: Tab

Over The Hills And Far Away Tab

Led Zeppelin 
Over the hills and far away
Houses of the holy

                  Guys, this is my first tab...so if it's wrong, which i don't think
it is...then tell me.  Im only 14 too. So here it is.

Intro
|---------------------|--------------------2--     
|------------------3--|--0h2^0---0-4^2^0---3--
|---0h2^0-------0--0--|--------4---------0-2--   
|-----------4^0----0--|--------------------0--   
|------------------2--|-----------------------
|------------------3--|-----------------------
[ Tab from: http://www.guitartabs.cc/tabs/l/led_zeppelin/over_the_hills_and_far_away_tab_ver_2.html ]
|---------------------|--------------------2--
|------------------3--|--------------------3--
|------------------0--|--0^2^0---0-4^2^0---2--
|------2---0^2--0--0--|--------4---------0-0--
|--0^2---2---------2--|-----------------------
|------------------3--|-----------------------

|---------------|----|----|------|
|---------------|-3--|-3--|-3/5--|
|--0h2^0-----0--|-0--|-0--|-0/0--| REPEAT INTRO
|--------4^0----|-2--|-0--|-0/0--|
|---------------|-3--|-2--|-1/3--|
|---------------|----|----|------|

---------------------------3-3--
--3-3--3-------------------2-3--
--0-0--0-------------------3-2--
--2-2--0-----------2^0-0-0-0-0--
--3-3--2-----0h2^0--------------
-------3-3-3--------------------

Try it out...it sounds just about right...tell me how it is...good or bad, anythings open.
Crazgtr227@hotmail.com

Nate