Led Zeppelin - Out On The Tiles Chords & Tabs

 

Out On The Tiles Chords & Tabs

Led Zeppelin Chords & Tabs

Version: 4 Type: Tab 0 ratings
1 star 2 stars 3 stars 4 stars 5 stars
comments

Out On The Tiles Tab

   
-----------------------------------------------------------------------------
                     Led Zeppelin - Out On The Tiles
-----------------------------------------------------------------------------
Transcribed by Victor Ochoa
Standard Tuning


  Intro
E|---------------|----------------|
B|---------------|----------------|
G|---------------|----------------|
D|---------------|7---7---7-------|
A|---------------|7---7---7-------|
E|333333332222222|5-5-5-5-5-5-----|


  Verse   (Repeat this line 2x)  ---Play the whole Verse two times---
E|----------------|----------------|
B|----------------|----------------|
G|----------------|----------------|
D|---4-----------1|212121----------|
A|--4-------------|------4020202320|
E|25--------------|----------------|
[ Tab from: http://www.guitartabs.cc/tabs/l/led_zeppelin/out_on_the_tiles_tab_ver_4.html ]
				    2/4 time 7/8 time
E|----------------|----------------|--------|--------------|
B|----------------|----------------|--------|--------------|
G|----------------|----------------|--------|--------------|
D|---4-----------1|212121----------|--------|--------------|
A|--4-------------|------424242420-|--------|4--2--4---2-4-|
E|25--------------|---------------4|5454545-|2--0--2---0-2-|
             
  Chorus  (Repeat two times)
E|----------------|----------------|
B|99999-----2-2--2|--------99999-9-|
G|99999-----2-2--2|----2-2-99999-9-|
D|99999---222-2--2|22222-2-99999-9-|
A|77777--0000-0--0|00000-0-77777-7-|
E|00000-----------|--------00000-0-|
      All I need...

E|----------------|
B|----------------|
G|----------------|
D|7---7---7---7---|
A|7---7---7---7---|
E|5-5-5-5-5-5-5-5-|

    Repeat the whole -Intro,Verse,Chorus- a second time.  Then...

  Outro
E|-------------|---------------|
B|-------------|---------------|
G|9--12-99-1299|9--12-9914-1299|
D|9--12-99-1299|9--12-9914-1299| repeat and fade
A|7--10-77-1077|7--10-7712-1077|
E|-------------|---------------|
Comments