Led Zeppelin - Out On The Tiles Chords & Tabs

 

Out On The Tiles Chords & Tabs

Led Zeppelin Chords & Tabs

Version: 3 Type: Tab 0 ratings
1 star 2 stars 3 stars 4 stars 5 stars
comments

Out On The Tiles Tab

	Led Zeppelin
	"Out On The Tiles"
	Led Zeppelin III
	Atlantic Records 1970


Before first verse
==================

e:---------------------------------------------------------
B:---------------------------------------------------------
G:---------------------------------------------------------
D:-5-5-5-5-5-5-5-5-4-4-4-4-4-4-4-4-2-2----2-2----2-2-------
A:-x-x-x-x-x-x-x-x-x-x-x-x-x-x-x-x-0------0------0---------
E:-3-3-3-3-3-3-3-3-2-2-2-2-2-2-2-2---3b5----3b5----3b5-----



Verse (Repeat x2)
=====

e:-----------------------------------------------
B:-----------------------------------------------
G:-----------------------------------------------
D:-------4-----1-2-1-2-1-2-1---------------------
A:---1-4---------------------4-0-2-0-2-0-2-3-2-0-
E:-2---------------------------------------------

e:-----------------------------------------------
B:-----------------------------------------------
G:-----------------------------------------------
D:-------4-----1-2-1-2-1-2-1---------------------
A:---1-4---------------------4-0-2-0-2-0-2-3-2-0-
E:-2---------------------------------------------

e:-----------------------------------------------------------------------------
B:-----------------------------------------------------------------------------
G:-----------------------------------------------------------------------------
D:-------4-----1-2-1-2-1-2-1-------------------------------------4--2--4---2-4-
A:---1-4---------------------4-2-4-2-4-2-4-2---------------------4--2--4---2-4-
E:-2-----------------------------------------5-4-5-4-5-4-5-4-5---2--0--2---0-2-



Chorus (Repeat x2)
======
[ Tab from: http://www.guitartabs.cc/tabs/l/led_zeppelin/out_on_the_tiles_tab_ver_3.html ]
e:---------0---------------0---------------0---------------0-------
B:---------0---------------2---------------2---------------0-------
G:---------1---------------2---------------2---------------1-------
D:---------2-------2-2-2-2-2---2-2-2-2-2-2-2---2-2---------2-------
A:-2-2-2-2-2---2-2-0-0-0-0-0---0-0-0-0-0-0-0---0-0-2-2-2-2-2---2-2-
E:-0-0-0-0-0---0-0---------------------------------0-0-0-0-0---0-0-

e:---------0---------------0---------------0---------------0-------
B:---------0---------------2---------------2---------------0-------
G:---------1---------------2---------------2---------------1-------
D:---------2-------2-2-2-2-2---2-2-2-2-2-2-2---2-2---------2-------
A:-2-2-2-2-2---2-2-0-0-0-0-0---0-0-0-0-0-0-0---0-0-2-2-2-2-2---2-2-
E:-0-0-0-0-0---0-0---------------------------------0-0-0-0-0---0-0-

e:-----------------------------
B:-----------------------------
G:-----------------------------
D:-2-2----2-2----2-2----2-2----
A:-0------0------0------0------
E:---3b5----3b5----3b5----3b5--



After chorus
============

e:-------------------------------------------------------------
B:-------------------------------------------------------------
G:-------------------------------------------------------------
D:-5-5-5-5-5-5-5-5-4-4-4-4-4-4-4-4-2-2----2-2----2-2----2-2----
A:-x-x-x-x-x-x-x-x-x-x-x-x-x-x-x-x-0------0------0------0------
E:-3-3-3-3-3-3-3-3-2-2-2-2-2-2-2-2---3b5----3b5----3b5----3b5--

e:---------------------------------------------------------
B:---------------------------------------------------------
G:---------------------------------------------------------
D:-5-5-5-5-5-5-5-5-4-4-4-4-4-4-4-4-2-2----2-2----2-2-------
A:-x-x-x-x-x-x-x-x-x-x-x-x-x-x-x-x-0------0------0---------
E:-3-3-3-3-3-3-3-3-2-2-2-2-2-2-2-2---3b5----3b5----3b5-----



Outro
=====

Then play this over until the song ends:

e:---------------------------------------------------------
B:-9-9-9-9-12----9--9--9-12----9-9-9-9-12---9--14--14-12---
G:-9-9-9-9-12----9--9--9-12----9-9-9-9-12---9--14--14-12---
D:-9-9-9-9-12----9--9--9-12----9-9-9-9-12---9--14--14-12---
A:-7-7-7-7-10----7--7--7-10----7-7-7-7-10---7--12--12-10---
E:-0-0-0-0-0-----0--0--0-0-----0-0-0-0-0----0--0---0--0----
Comments