Led Zeppelin - Nobody S Fault But Mine Harmonica Chords & Tabs

 

Nobody S Fault But Mine Harmonica Chords & Tabs

Led Zeppelin Chords & Tabs

Version: 1 Type: Tab 9 ratings
1 star 2 stars 3 stars 4 stars 5 stars
comments

Nobody S Fault But Mine Harmonica Tab

                                                                                                                                                                                   
----------0/3-10~-----|------------------|------------------|------------------|---10-8-7-5-----3-3--3--0----|---13-12-10-8-7---7-5-7-7-5-7---0--|---13-12-10-8-7-------------------|
--------------12~-----|------------------|------------------|------------------|--------------5-----------3--|----------------8-------------8----|----------------8-9-8-9--9--------|
----------------------|------------------|------------------|------------------|-----------------------------|-----------------------------------|----------------------------10-9--|
----------------------|------------------|------------------|------------------|-----------------------------|-----------------------------------|----------------------------------|
----------------------|------------------|------------------|------------------|-----------------------------|-----------------------------------|----------------------------------|
----------------------|------------------|------------------|------------------|-----------------------------|-----------------------------------|----------------------------------|


                                                                                                                                                                                  
---13-12-10-8-7------------------|--------------------3-3--0-0--|-----------0--3--3--3--0---|---7-10-10-10-10-10-10-10-10-8-7-5-3-0--|---10-12-12-12-12-12-12-12-----------------|
----------------8-9--9--9-8-6----|---1-1-1-1-1-1-1-1------------|---1-1-1-1-----------------|----------------------------------------|----------------------------13-12-10-------|
------------------------------9--|------------------------------|---------------------------|----------------------------------------|-------------------------------------12-9--|
---------------------------------|------------------------------|---------------------------|----------------------------------------|-------------------------------------------|
---------------------------------|------------------------------|---------------------------|----------------------------------------|-------------------------------------------|
---------------------------------|------------------------------|---------------------------|----------------------------------------|-------------------------------------------|

[ Tab from: http://www.guitartabs.cc/tabs/l/led_zeppelin/nobody_s_fault_but_mine_harmonica_tab.html ]
                                                                                                                                                                                                  
---13-12-10-8-7----------------|---13-12-10-8-7---7-6-----7---0--|---13-12-10-8-7------------------|---13-12-10-8--------------------|----------------------------|------------------------------|
----------------8-9--9--9------|----------------8-----------8----|----------------8-9--9--9--------|-------------------8----8--------|---8-8--8-8--8--8--8-8-8-8--|---8-8--8-8--8-8-8-8-8--8-8-8-|
---------------------------9---|---------------------------------|---------------------------10----|--------------10-8---9-------9---|---9-9--9-9--9--9--9-9-9-9--|---9-9--9-9--9-9-9-9-9--9-9-9-|
-------------------------------|---------------------------------|------------------------------9--|---------------------------------|---9-9--9-9--9--9--9-9-9-9--|---9-9--9-9--9-9-9-9-9--9-9-9-|
-------------------------------|---------------------------------|---------------------------------|---------------------------------|----------------------------|------------------------------|
-------------------------------|---------------------------------|---------------------------------|---------------------------------|----------------------------|------------------------------|


                                                                                                                                                                                                       
----------------------------|------------------------|---13-12-10-8-7---------0------|--13-12-10-8-7-7---------------|---13-12-10-8-7----------------|----|----|----|----|----|---|---|---|---|---|---|
---8-8--8-8--8--8--10-8--8--|---8-8--8---------------|----------------8-8------------|-----------------5---5--5-3----|----------------5---5--5-3/-5--|----|----|----|----|----|---|---|---|---|---|---|
---9-9--9-9--9--9--9--9--9--|---9-9--9-9--9-9--------|---------------------7----7----|-------------------------------|-------------------------------|----|----|----|----|----|---|---|---|---|---|---|
---9-9--9-9--9--9--10-9--9--|---9-9--9-9--9-9--------|-------------------------------|-------------------------------|-------------------------------|----|----|----|----|----|---|---|---|---|---|---|
----------------------------|------------------------|-------------------------------|-------------------------------|-------------------------------|----|----|----|----|----|---|---|---|---|---|---|
----------------------------|------------------------|-------------------------------|-------------------------------|-------------------------------|----|----|----|----|----|---|---|---|---|---|---|
Comments