Led Zeppelin - Moby Dick Chords & Tabs

 

Moby Dick Chords & Tabs

Led Zeppelin Chords & Tabs

Version: 9 Type: Tab 0 ratings
1 star 2 stars 3 stars 4 stars 5 stars
comments

Moby Dick Tab

   
-----------------------------------------------------------------------------
			     Moby Dick - Led Zeppelin
-----------------------------------------------------------------------------
Tabbed by: Guitarzan Freak
Tuning: Standard EADGBe

  Intro/Main Riff:
e|---------------------------------------------------------------------------
B|---------------------------------------------------------------------------
G|---------------------------------------------------------------------------
D|---5-5p3----------------5-5p3----------------5-5p3-------------------------
A|---------5--1-3-1-3-1---------5--1-3-1-3-1---------5--1-3-1-3-1------------
E|-3--------------------3--------------------3-------------------------------

e|----------------------|
B|----------------------|
G|----------------------|
D|---5-5p3--------------|
A|---------5--1-3-1-3-1-|
E|-3--------------------|

  Riff 2:
e|---------------------------------------------|
B|---------------------------------------------|
G|---5-5p3----------------5-5p3----------------|
D|---------5--1-3-1-3-1---------5--1-3-1-3-1---|
A|-3--------------------3--------------------3-|
E|---------------------------------------------|

  Riff 3:
e|--------------------------------------------------|
B|--------------------------------------------------|
G|---7-7p5---7-7---5-7--3/5-5-5-5-5p3---7b9-3---5-3-|
D|---------7-----7--------------------5-------5-----|
A|-5------------------------------------------------|
E|--------------------------------------------------|

  Riff 4:
e|----------10------------------------------------------------|
B|-------10------------------------------------------12--10\--|
G|-12b14---------12b14r12-10----12-10-----------------12--10\-|
D|---------------------------12--------12~--12-10-12----------|
A|------------------------------------------------------------|
E|------------------------------------------------------------|
[ Tab from: http://www.guitartabs.cc/tabs/l/led_zeppelin/moby_dick_tab_ver_9.html ]
  Riff 5:                                            ** Rake    **
e|--------------------------------------------13b15--10---13b15-10---|
B|-13b15~13b15~13b15~13b15~13b15~13b15~13b15----------10---------10--|
G|-----------------------------------------------------12---------12-|
D|-------------------------------------------------------------------|
A|-------------------------------------------------------------------|
E|-------------------------------------------------------------------|
         
  Riff 6:
e|-3p1p0--------------------3p1p0-------------------------|
B|-------3p1p0--------------------3p1p0-------------------|
G|-------------4p2p0--------------------4p2p0-------------|
D|-------------------3p2p0--------------------3p2p0-------|
A|--------------------------------------------------3p2p0-|
E|--------------------------------------------------------|
         
  Riff 7:         
e|-----------------------------------10---------------|
B|----------------------------10-12-----13b15--13b15~-|
G|-----------------7-7-7-9/11-------------------------|
D|-----------7-9--------------------------------------|
A|-5-5-5-7/9------------------------------------------|
E|----------------------------------------------------|
 
  Chords:
 D5 chord (xx023x), D (x5777x), C (x3555x), A (x0222x)
  
   D5  D   C   A
e|---|---|---|---|
B|-3-|-7-|-5-|-2-|
G|-2-|-7-|-5-|-2-|
D|-0-|-7-|-5-|-2-|
A|---|-5-|-3-|-0-|
E|---|---|---|---|

 Riff/Chord Progression:

 Main Riff:x4
 Riff 2:x2
 Main Riff:x2
 Riff 3:x1
 Main Riff:x3
 Riff 4:x1
 Main Riff:x1
 Riff 5:x1
 Riff 2:x1
 Riff 6:x1
 Main Riff:x1
 Riff 7:x1
 Riff 3:x1
 D5 Chord:x1

 Drum Solo

 Main Riff:x1
 Riff 2:x1
 Riff 3:x1
 D Chord:x1
 C Chord:x1
 A Chord:x1

 Key:
| \  slide down
| h  hammer-on
| p  pull-off
| ~  vibrato
| +  harmonic
| x  Mute note
| ** Rake or play quickly

=============================================================================
Comments