Led Zeppelin - Moby Dick Chords & Tabs

 

Moby Dick Chords & Tabs

Led Zeppelin Chords & Tabs

Version: 7 Type: Tab 0 ratings
1 star 2 stars 3 stars 4 stars 5 stars
comments

Moby Dick Tab

Led Zeppelin - Moby Dick

p = pull off

e|----------------------------------|
B|----------------------------------|
G|----------------------------------|    X 4
D|----12-12p10----------------------|
A|-------------12--8--10--8--10--8--|
E|-10-------------------------------|

e|----------------------------------|
B|----------------------------------|
G|----12-12p10----------------------|    X 2
D|-------------12--8--10--8--10--8--|
A|-10-------------------------------|
E|----------------------------------|
[ Tab from: http://www.guitartabs.cc/tabs/l/led_zeppelin/moby_dick_tab_ver_7.html ]
e|----------------------------------|
B|----------------------------------|
G|----------------------------------|    X 2
D|----12-12p10----------------------|
A|-------------12--8--10--8--10--8--|
E|-10-------------------------------|

e|-----------------------------------------------------------------|
B|-----------------------------------------------------------------|
G|-----14-14p12----14--14------12--14--12-12-12-12-12-10-----------|
D|--------------14---------14----------------------------12--------|
A|-12--------------------------------------------------------------|
E|-----------------------------------------------------------------|

e|-10----------------|
B|----13--10---------|
G|-----------12--10~~|
D|-------------------|
A|-------------------|
E|-------------------|

repeat all
Comments