Led Zeppelin - Moby Dick Chords & Tabs

 

Moby Dick Chords & Tabs

Led Zeppelin Chords & Tabs

Version: 6 Type: Tab 0 ratings
1 star 2 stars 3 stars 4 stars 5 stars
comments

Moby Dick Tab

Transcribed by Facundo Bugallo

e------------------------------
b------------------------------
g----7--7--5-------------------  X 4
d-------------7-----5-----5----
a-5--------------8-----8-----8-
e------------------------------

e------------------------------
b------------------------------
g------------------------------  X 2
d----5--5--3-------------------
a-------------5------3-----3---  
e-3--------------6-----6-----6-
[ Tab from: http://www.guitartabs.cc/tabs/l/led_zeppelin/moby_dick_tab_ver_6.html ]
e------------------------------
b------------------------------
g----7--7--5-------------------  X 2
d-------------7-----5-----5----
a-5--------------8-----8-----8-
e------------------------------

e------------------------------------------------------------------------
b------------------------------------------------------------------------
g---------------------------------------------------------5b--5--2--0----
d----7--7--5-----7--7-----5--7-----3/5--5--5--5--5--3------------------3-
a-------------5--------5-------------------------------5-----------------
e-5----------------------------------------------------------------------

repeat all....
Comments