Led Zeppelin - Moby Dick Chords & Tabs

 

Moby Dick Chords & Tabs

Led Zeppelin Chords & Tabs

Version: 2 Type: Tab 3 ratings
1 star 2 stars 3 stars 4 stars 5 stars
comments

Moby Dick Tab

   
Tabed By: Adam Birch   Adamoman59@hotmail.com
Band: Led Zepplin
Song: Moby Dick
CD: Led Zepplin II

Drop D tuning

Intro
Riff A-
e-----------------------------------
B-----------------------------------
G-----------------------------------
D------0--0-------------------------
A------------3--0-------------------
D---0--------------3--5--3--5--3----Repeat 3 Times
[ Tab from: http://www.guitartabs.cc/tabs/l/led_zeppelin/moby_dick_tab_ver_2.html ]
Riff B-
e-----------------------------------
B-----------------------------------
G-----------------------------------
D-----5--5--3-----------------------
A--------------5--1--3--1--3--1-----
D--5--------------------------------Repeat 1 time

Riff A 2 Times

Riff C-
e-----------------------------------
B-----------------------------------
G-----------------------------------
D-----7--7--5-----7--7-----5--7-----
A--------------7--------7-----------
D--7--------------------------------1 time
Comments