Led Zeppelin - Moby Dick Chords & Tabs

 

Moby Dick Chords & Tabs

Led Zeppelin Chords & Tabs

Version: 4 Type: Bass Tab 0 ratings
1 star 2 stars 3 stars 4 stars 5 stars
comments

Moby Dick Bass Tab

	Led Zeppelin
	"Moby Dick"
	Led Zeppelin II
	Atlantic Records 1969


Riff 1
======

G:----7--7-5-----------------
D:-----------5-----5----5----
A:-5-----------8-----8-----8-
E:---------------------------



Riff 2
======
[ Tab from: http://www.guitartabs.cc/tabs/l/led_zeppelin/moby_dick_btab_ver_4.html ]
G:-----12--12-10-----------------------
D:---------------12------10-----10-----
A:-10---------------13------13------13-
E:-------------------------------------



Riff 3
======

G:------------------------------------------7---5---------
D:----7--7-5---7--7----5--7---5-5-5-5-5-----------7-5-----
A:-----------7-------7------7-----------8-5-----------8---
E:-5------------------------------------------------------
Comments